  0
SECTION
  2
HEADER
  9
$ACADVER
  1
AC1024
  9
$ACADMAINTVER
 70
     6
  9
$DWGCODEPAGE
  3
UNDEFINED
  9
$INSBASE
 10
0.0
 20
0.0
 30
0.0
  9
$EXTMIN
 10
1.000000000000000E+20
 20
1.000000000000000E+20
 30
1.000000000000000E+20
  9
$EXTMAX
 10
-1.000000000000000E+20
 20
-1.000000000000000E+20
 30
-1.000000000000000E+20
  9
$LIMMIN
 10
0.0
 20
0.0
  9
$LIMMAX
 10
12.0
 20
9.0
  9
$ORTHOMODE
 70
     0
  9
$REGENMODE
 70
     1
  9
$FILLMODE
 70
     1
  9
$QTEXTMODE
 70
     0
  9
$MIRRTEXT
 70
     1
  9
$LTSCALE
 40
1.0
  9
$ATTMODE
 70
     1
  9
$TEXTSIZE
 40
0.2
  9
$TRACEWID
 40
0.05
  9
$TEXTSTYLE
  7
Standard
  9
$CLAYER
  8
0
  9
$CELTYPE
  6
ByLayer
  9
$CECOLOR
 62
   256
  9
$CELTSCALE
 40
1.0
  9
$DISPSILH
 70
     0
  9
$DIMSCALE
 40
1.0
  9
$DIMASZ
 40
0.18
  9
$DIMEXO
 40
0.0625
  9
$DIMDLI
 40
0.38
  9
$DIMRND
 40
0.0
  9
$DIMDLE
 40
0.0
  9
$DIMEXE
 40
0.18
  9
$DIMTP
 40
0.0
  9
$DIMTM
 40
0.0
  9
$DIMTXT
 40
0.18
  9
$DIMCEN
 40
0.09
  9
$DIMTSZ
 40
0.0
  9
$DIMTOL
 70
     0
  9
$DIMLIM
 70
     0
  9
$DIMTIH
 70
     1
  9
$DIMTOH
 70
     1
  9
$DIMSE1
 70
     0
  9
$DIMSE2
 70
     0
  9
$DIMTAD
 70
     0
  9
$DIMZIN
 70
     0
  9
$DIMBLK
  1

  9
$DIMASO
 70
     1
  9
$DIMSHO
 70
     1
  9
$DIMPOST
  1

  9
$DIMAPOST
  1

  9
$DIMALT
 70
     0
  9
$DIMALTD
 70
     2
  9
$DIMALTF
 40
25.4
  9
$DIMLFAC
 40
1.0
  9
$DIMTOFL
 70
     0
  9
$DIMTVP
 40
0.0
  9
$DIMTIX
 70
     0
  9
$DIMSOXD
 70
     0
  9
$DIMSAH
 70
     0
  9
$DIMBLK1
  1

  9
$DIMBLK2
  1

  9
$DIMSTYLE
  2
Standard
  9
$DIMCLRD
 70
     0
  9
$DIMCLRE
 70
     0
  9
$DIMCLRT
 70
     0
  9
$DIMTFAC
 40
1.0
  9
$DIMGAP
 40
0.09
  9
$DIMJUST
 70
     0
  9
$DIMSD1
 70
     0
  9
$DIMSD2
 70
     0
  9
$DIMTOLJ
 70
     1
  9
$DIMTZIN
 70
     0
  9
$DIMALTZ
 70
     0
  9
$DIMALTTZ
 70
     0
  9
$DIMUPT
 70
     0
  9
$DIMDEC
 70
     4
  9
$DIMTDEC
 70
     4
  9
$DIMALTU
 70
     2
  9
$DIMALTTD
 70
     2
  9
$DIMTXSTY
  7
Standard
  9
$DIMAUNIT
 70
     0
  9
$DIMADEC
 70
     0
  9
$DIMALTRND
 40
0.0
  9
$DIMAZIN
 70
     0
  9
$DIMDSEP
 70
    46
  9
$DIMATFIT
 70
     3
  9
$DIMFRAC
 70
     0
  9
$DIMLDRBLK
  1

  9
$DIMLUNIT
 70
     2
  9
$DIMLWD
 70
    -2
  9
$DIMLWE
 70
    -2
  9
$DIMTMOVE
 70
     0
  9
$DIMFXL
 40
1.0
  9
$DIMFXLON
 70
     0
  9
$DIMJOGANG
 40
0.7853981633974483
  9
$DIMTFILL
 70
     0
  9
$DIMTFILLCLR
 70
     0
  9
$DIMARCSYM
 70
     0
  9
$DIMLTYPE
  6

  9
$DIMLTEX1
  6

  9
$DIMLTEX2
  6

  9
$DIMTXTDIRECTION
 70
     0
  9
$LUNITS
 70
     2
  9
$LUPREC
 70
     4
  9
$SKETCHINC
 40
0.1
  9
$FILLETRAD
 40
0.5
  9
$AUNITS
 70
     0
  9
$AUPREC
 70
     0
  9
$MENU
  1
.
  9
$ELEVATION
 40
0.0
  9
$PELEVATION
 40
0.0
  9
$THICKNESS
 40
0.0
  9
$LIMCHECK
 70
     0
  9
$CHAMFERA
 40
0.5
  9
$CHAMFERB
 40
0.5
  9
$CHAMFERC
 40
1.0
  9
$CHAMFERD
 40
0.0
  9
$SKPOLY
 70
     0
  9
$TDCREATE
 40
2457475.968993044
  9
$TDUCREATE
 40
2457476.177326389
  9
$TDUPDATE
 40
2457475.968993044
  9
$TDUUPDATE
 40
2457476.177326389
  9
$TDINDWG
 40
0.0000000116
  9
$TDUSRTIMER
 40
0.0000000116
  9
$USRTIMER
 70
     1
  9
$ANGBASE
 50
0.0
  9
$ANGDIR
 70
     0
  9
$PDMODE
 70
     0
  9
$PDSIZE
 40
0.0
  9
$PLINEWID
 40
0.0
  9
$SPLFRAME
 70
     0
  9
$SPLINETYPE
 70
     6
  9
$SPLINESEGS
 70
     8
  9
$HANDSEED
  5
5A
  9
$SURFTAB1
 70
     6
  9
$SURFTAB2
 70
     6
  9
$SURFTYPE
 70
     6
  9
$SURFU
 70
     6
  9
$SURFV
 70
     6
  9
$UCSBASE
  2

  9
$UCSNAME
  2

  9
$UCSORG
 10
0.0
 20
0.0
 30
0.0
  9
$UCSXDIR
 10
1.0
 20
0.0
 30
0.0
  9
$UCSYDIR
 10
0.0
 20
1.0
 30
0.0
  9
$UCSORTHOREF
  2

  9
$UCSORTHOVIEW
 70
     0
  9
$UCSORGTOP
 10
0.0
 20
0.0
 30
0.0
  9
$UCSORGBOTTOM
 10
0.0
 20
0.0
 30
0.0
  9
$UCSORGLEFT
 10
0.0
 20
0.0
 30
0.0
  9
$UCSORGRIGHT
 10
0.0
 20
0.0
 30
0.0
  9
$UCSORGFRONT
 10
0.0
 20
0.0
 30
0.0
  9
$UCSORGBACK
 10
0.0
 20
0.0
 30
0.0
  9
$PUCSBASE
  2

  9
$PUCSNAME
  2

  9
$PUCSORG
 10
0.0
 20
0.0
 30
0.0
  9
$PUCSXDIR
 10
1.0
 20
0.0
 30
0.0
  9
$PUCSYDIR
 10
0.0
 20
1.0
 30
0.0
  9
$PUCSORTHOREF
  2

  9
$PUCSORTHOVIEW
 70
     0
  9
$PUCSORGTOP
 10
0.0
 20
0.0
 30
0.0
  9
$PUCSORGBOTTOM
 10
0.0
 20
0.0
 30
0.0
  9
$PUCSORGLEFT
 10
0.0
 20
0.0
 30
0.0
  9
$PUCSORGRIGHT
 10
0.0
 20
0.0
 30
0.0
  9
$PUCSORGFRONT
 10
0.0
 20
0.0
 30
0.0
  9
$PUCSORGBACK
 10
0.0
 20
0.0
 30
0.0
  9
$USERI1
 70
     0
  9
$USERI2
 70
     0
  9
$USERI3
 70
     0
  9
$USERI4
 70
     0
  9
$USERI5
 70
     0
  9
$USERR1
 40
0.0
  9
$USERR2
 40
0.0
  9
$USERR3
 40
0.0
  9
$USERR4
 40
0.0
  9
$USERR5
 40
0.0
  9
$WORLDVIEW
 70
     1
  9
$SHADEDGE
 70
     3
  9
$SHADEDIF
 70
    70
  9
$TILEMODE
 70
     1
  9
$MAXACTVP
 70
    64
  9
$PINSBASE
 10
0.0
 20
0.0
 30
0.0
  9
$PLIMCHECK
 70
     0
  9
$PEXTMIN
 10
1.000000000000000E+20
 20
1.000000000000000E+20
 30
1.000000000000000E+20
  9
$PEXTMAX
 10
-1.000000000000000E+20
 20
-1.000000000000000E+20
 30
-1.000000000000000E+20
  9
$PLIMMIN
 10
0.0
 20
0.0
  9
$PLIMMAX
 10
12.0
 20
9.0
  9
$UNITMODE
 70
     0
  9
$VISRETAIN
 70
     1
  9
$PLINEGEN
 70
     0
  9
$PSLTSCALE
 70
     1
  9
$TREEDEPTH
 70
  3020
  9
$CMLSTYLE
  2
Standard
  9
$CMLJUST
 70
     0
  9
$CMLSCALE
 40
1.0
  9
$PROXYGRAPHICS
 70
     1
  9
$MEASUREMENT
 70
     0
  9
$CELWEIGHT
370
    -1
  9
$ENDCAPS
280
     0
  9
$JOINSTYLE
280
     0
  9
$LWDISPLAY
290
     1
  9
$INSUNITS
 70
     1
  9
$HYPERLINKBASE
  1

  9
$STYLESHEET
  1

  9
$XEDIT
290
     1
  9
$CEPSNTYPE
380
     0
  9
$PSTYLEMODE
290
     1
  9
$FINGERPRINTGUID
  2
{3B67AB4C-02E3-94AC-0F74-CD562B3DEA18}
  9
$VERSIONGUID
  2
{FAEB1C32-E019-11D5-929B-00C0DF256EC4}
  9
$EXTNAMES
290
     1
  9
$PSVPSCALE
 40
0.0
  9
$OLESTARTUP
290
     0
  9
$SORTENTS
280
   127
  9
$INDEXCTL
280
     0
  9
$HIDETEXT
280
     1
  9
$XCLIPFRAME
280
     2
  9
$HALOGAP
280
     0
  9
$OBSCOLOR
 70
   257
  9
$OBSLTYPE
280
     0
  9
$INTERSECTIONDISPLAY
280
     0
  9
$INTERSECTIONCOLOR
 70
   257
  9
$DIMASSOC
280
     2
  9
$PROJECTNAME
  1

  9
$CAMERADISPLAY
290
     0
  9
$LENSLENGTH
 40
50.0
  9
$CAMERAHEIGHT
 40
0.0
  9
$STEPSPERSEC
 40
2.0
  9
$STEPSIZE
 40
6.0
  9
$3DDWFPREC
 40
2.0
  9
$PSOLWIDTH
 40
0.25
  9
$PSOLHEIGHT
 40
4.0
  9
$LOFTANG1
 40
1.570796326794897
  9
$LOFTANG2
 40
1.570796326794897
  9
$LOFTMAG1
 40
0.0
  9
$LOFTMAG2
 40
0.0
  9
$LOFTPARAM
 70
     7
  9
$LOFTNORMALS
280
     1
  9
$LATITUDE
 40
37.795
  9
$LONGITUDE
 40
-122.394
  9
$NORTHDIRECTION
 40
0.0
  9
$TIMEZONE
 70
 -8000
  9
$LIGHTGLYPHDISPLAY
280
     1
  9
$TILEMODELIGHTSYNCH
280
     1
  9
$CMATERIAL
347
3C
  9
$SOLIDHIST
280
     1
  9
$SHOWHIST
280
     1
  9
$DWFFRAME
280
     2
  9
$DGNFRAME
280
     2
  9
$REALWORLDSCALE
290
     1
  9
$INTERFERECOLOR
 62
   256
  9
$CSHADOW
280
     0
  9
$SHADOWPLANELOCATION
 40
0.0
  0
ENDSEC
  0
SECTION
  2
CLASSES
  0
CLASS
  1
ACDBDICTIONARYWDFLT
  2
AcDbDictionaryWithDefault
  3
ObjectDBX Classes
 90
        0
 91
        4
280
     0
281
     0
  0
CLASS
  1
VISUALSTYLE
  2
AcDbVisualStyle
  3
ObjectDBX Classes
 90
     4095
 91
        4
280
     0
281
     0
  0
CLASS
  1
MATERIAL
  2
AcDbMaterial
  3
ObjectDBX Classes
 90
     1153
 91
        4
280
     0
281
     0
  0
CLASS
  1
SUN
  2
AcDbSun
  3
SCENEOE
 90
     1024
 91
        4
280
     0
281
     0
  0
ENDSEC
  0
SECTION
  2
TABLES
  0
TABLE
  2
VPORT
  5
8
330
0
100
AcDbSymbolTable
 70
     1
  0
VPORT
  5
29
330
8
100
AcDbSymbolTableRecord
100
AcDbViewportTableRecord
  2
*Active
 70
     0
 10
0.0
 20
0.0
 11
1.0
 21
1.0
 12
0.0
 22
0.0
 13
0.0
 23
0.0
 14
0.5
 24
0.5
 15
0.5
 25
0.5
 16
0.0
 26
0.0
 36
1.0
 17
2.392361111111111
 27
1.958680470784505
 37
0.0
 40
3.91736094156901
 41
1.221414695656257
 42
50.0
 43
0.0
 44
0.0
 50
0.0
 51
0.0
 71
     0
 72
   100
 73
     1
 74
     3
 75
     0
 76
     0
 77
     0
 78
     0
281
     0
 65
     1
110
0.0
120
0.0
130
0.0
111
1.0
121
0.0
131
0.0
112
0.0
122
1.0
132
0.0
 79
     0
146
0.0
 60
     3
 61
     5
292
     1
282
     1
141
0.0
142
0.0
 63
   250
361
3F
  0
ENDTAB
  0
TABLE
  2
LTYPE
  5
5
330
0
100
AcDbSymbolTable
 70
     1
  0
LTYPE
  5
14
330
5
100
AcDbSymbolTableRecord
100
AcDbLinetypeTableRecord
  2
ByBlock
 70
     0
  3

 72
    65
 73
     0
 40
0.0
  0
LTYPE
  5
15
330
5
100
AcDbSymbolTableRecord
100
AcDbLinetypeTableRecord
  2
ByLayer
 70
     0
  3

 72
    65
 73
     0
 40
0.0
  0
LTYPE
  5
16
330
5
100
AcDbSymbolTableRecord
100
AcDbLinetypeTableRecord
  2
Continuous
 70
     0
  3
Solid line
 72
    65
 73
     0
 40
0.0
  0
ENDTAB
  0
TABLE
  2
LAYER
  5
2
330
0
100
AcDbSymbolTable
 70
     2
  0
LAYER
  5
10
330
2
100
AcDbSymbolTableRecord
100
AcDbLayerTableRecord
  2
0
 70
     0
 62
     7
  6
Continuous
370
    -3
390
F
347
3E
  0
LAYER
  5
40
330
2
100
AcDbSymbolTableRecord
100
AcDbLayerTableRecord
  2
Layer 1
 70
     0
 62
     7
  6
Continuous
370
    -3
390
F
347
3E
  0
ENDTAB
  0
TABLE
  2
STYLE
  5
3
330
0
100
AcDbSymbolTable
 70
     1
  0
STYLE
  5
11
330
3
100
AcDbSymbolTableRecord
100
AcDbTextStyleTableRecord
  2
Standard
 70
     0
 40
0.0
 41
1.0
 50
0.0
 71
     0
 42
0.2
  3
txt
  4

  0
ENDTAB
  0
TABLE
  2
VIEW
  5
6
330
0
100
AcDbSymbolTable
 70
     0
  0
ENDTAB
  0
TABLE
  2
UCS
  5
7
330
0
100
AcDbSymbolTable
 70
     0
  0
ENDTAB
  0
TABLE
  2
APPID
  5
9
330
0
100
AcDbSymbolTable
 70
     1
  0
APPID
  5
12
330
9
100
AcDbSymbolTableRecord
100
AcDbRegAppTableRecord
  2
ACAD
 70
     0
  0
ENDTAB
  0
TABLE
  2
DIMSTYLE
  5
A
330
0
100
AcDbSymbolTable
 70
     1
100
AcDbDimStyleTable
  0
DIMSTYLE
105
27
330
A
100
AcDbSymbolTableRecord
100
AcDbDimStyleTableRecord
  2
Standard
 70
     0
178
     0
340
11
  0
ENDTAB
  0
TABLE
  2
BLOCK_RECORD
  5
1
330
0
100
AcDbSymbolTable
 70
     2
  0
BLOCK_RECORD
  5
1F
330
1
100
AcDbSymbolTableRecord
100
AcDbBlockTableRecord
  2
*Model_Space
340
22
 70
     0
280
     1
281
     0
  0
BLOCK_RECORD
  5
1B
330
1
100
AcDbSymbolTableRecord
100
AcDbBlockTableRecord
  2
*Paper_Space
340
1E
 70
     0
280
     1
281
     0
  0
BLOCK_RECORD
  5
23
330
1
100
AcDbSymbolTableRecord
100
AcDbBlockTableRecord
  2
*Paper_Space0
340
26
 70
     0
280
     1
281
     0
  0
BLOCK_RECORD
  5
41
330
1
100
AcDbSymbolTableRecord
100
AcDbBlockTableRecord
  2
block 2
340
0
102
{BLKREFS
331
42
102
}
 70
     0
280
     1
281
     0
  0
ENDTAB
  0
ENDSEC
  0
SECTION
  2
BLOCKS
  0
BLOCK
  5
20
330
1F
100
AcDbEntity
  8
0
100
AcDbBlockBegin
  2
*Model_Space
 70
     0
 10
0.0
 20
0.0
 30
0.0
  3
*Model_Space
  1

  0
ENDBLK
  5
21
330
1F
100
AcDbEntity
  8
0
100
AcDbBlockEnd
  0
BLOCK
  5
1C
330
1B
100
AcDbEntity
 67
     1
  8
0
100
AcDbBlockBegin
  2
*Paper_Space
 70
     0
 10
0.0
 20
0.0
 30
0.0
  3
*Paper_Space
  1

  0
ENDBLK
  5
1D
330
1B
100
AcDbEntity
 67
     1
  8
0
100
AcDbBlockEnd
  0
BLOCK
  5
24
330
23
100
AcDbEntity
  8
0
100
AcDbBlockBegin
  2
*Paper_Space0
 70
     0
 10
0.0
 20
0.0
 30
0.0
  3
*Paper_Space0
  1

  0
ENDBLK
  5
25
330
23
100
AcDbEntity
  8
0
100
AcDbBlockEnd
  0
BLOCK
  5
43
330
41
100
AcDbEntity
  8
0
100
AcDbBlockBegin
  2
block 2
 70
     0
 10
0.0
 20
0.0
 30
0.0
  3
block 2
  1

  0
ENDBLK
  5
44
330
41
100
AcDbEntity
  8
0
100
AcDbBlockEnd
  0
ENDSEC
  0
SECTION
  2
ENTITIES
  0
INSERT
  5
42
330
1F
100
AcDbEntity
  8
Layer 1
100
AcDbBlockReference
  2
block 2
 10
0.0
 20
0.0
 30
0.0
  0
SPLINE
  5
45
330
1F
100
AcDbEntity
  8
Layer 1
 62
   179
420
  2301728
370
    35
100
AcDbSpline
210
0.0
220
0.0
230
1.0
 70
    11
 71
     3
 72
  1031
 73
  1027
 74
     0
 42
0.0000000001
 43
0.0000000001
 12
1.0
 22
0.0
 32
0.0
 13
1.0
 23
0.0
 33
0.0
 40
0.0
 40
0.0
 40
0.0
 40
0.0
 40
1.0
 40
1.0
 40
1.0
 40
2.0
 40
2.0
 40
2.0
 40
3.0
 40
3.0
 40
3.0
 40
4.0
 40
4.0
 40
4.0
 40
5.0
 40
5.0
 40
5.0
 40
6.0
 40
6.0
 40
6.0
 40
7.0
 40
7.0
 40
7.0
 40
8.0
 40
8.0
 40
8.0
 40
9.0
 40
9.0
 40
9.0
 40
10.0
 40
10.0
 40
10.0
 40
11.0
 40
11.0
 40
11.0
 40
12.0
 40
12.0
 40
12.0
 40
13.0
 40
13.0
 40
13.0
 40
14.0
 40
14.0
 40
14.0
 40
15.0
 40
15.0
 40
15.0
 40
16.0
 40
16.0
 40
16.0
 40
17.0
 40
17.0
 40
17.0
 40
18.0
 40
18.0
 40
18.0
 40
19.0
 40
19.0
 40
19.0
 40
20.0
 40
20.0
 40
20.0
 40
21.0
 40
21.0
 40
21.0
 40
22.0
 40
22.0
 40
22.0
 40
23.0
 40
23.0
 40
23.0
 40
24.0
 40
24.0
 40
24.0
 40
25.0
 40
25.0
 40
25.0
 40
26.0
 40
26.0
 40
26.0
 40
27.0
 40
27.0
 40
27.0
 40
28.0
 40
28.0
 40
28.0
 40
29.0
 40
29.0
 40
29.0
 40
30.0
 40
30.0
 40
30.0
 40
31.0
 40
31.0
 40
31.0
 40
32.0
 40
32.0
 40
32.0
 40
33.0
 40
33.0
 40
33.0
 40
34.0
 40
34.0
 40
34.0
 40
35.0
 40
35.0
 40
35.0
 40
36.0
 40
36.0
 40
36.0
 40
37.0
 40
37.0
 40
37.0
 40
38.0
 40
38.0
 40
38.0
 40
39.0
 40
39.0
 40
39.0
 40
40.0
 40
40.0
 40
40.0
 40
41.0
 40
41.0
 40
41.0
 40
42.0
 40
42.0
 40
42.0
 40
43.0
 40
43.0
 40
43.0
 40
44.0
 40
44.0
 40
44.0
 40
45.0
 40
45.0
 40
45.0
 40
46.0
 40
46.0
 40
46.0
 40
47.0
 40
47.0
 40
47.0
 40
48.0
 40
48.0
 40
48.0
 40
49.0
 40
49.0
 40
49.0
 40
50.0
 40
50.0
 40
50.0
 40
51.0
 40
51.0
 40
51.0
 40
52.0
 40
52.0
 40
52.0
 40
53.0
 40
53.0
 40
53.0
 40
54.0
 40
54.0
 40
54.0
 40
55.0
 40
55.0
 40
55.0
 40
56.0
 40
56.0
 40
56.0
 40
57.0
 40
57.0
 40
57.0
 40
58.0
 40
58.0
 40
58.0
 40
59.0
 40
59.0
 40
59.0
 40
60.0
 40
60.0
 40
60.0
 40
61.0
 40
61.0
 40
61.0
 40
62.0
 40
62.0
 40
62.0
 40
63.0
 40
63.0
 40
63.0
 40
64.0
 40
64.0
 40
64.0
 40
65.0
 40
65.0
 40
65.0
 40
66.0
 40
66.0
 40
66.0
 40
67.0
 40
67.0
 40
67.0
 40
68.0
 40
68.0
 40
68.0
 40
69.0
 40
69.0
 40
69.0
 40
70.0
 40
70.0
 40
70.0
 40
71.0
 40
71.0
 40
71.0
 40
72.0
 40
72.0
 40
72.0
 40
73.0
 40
73.0
 40
73.0
 40
74.0
 40
74.0
 40
74.0
 40
75.0
 40
75.0
 40
75.0
 40
76.0
 40
76.0
 40
76.0
 40
77.0
 40
77.0
 40
77.0
 40
78.0
 40
78.0
 40
78.0
 40
79.0
 40
79.0
 40
79.0
 40
80.0
 40
80.0
 40
80.0
 40
81.0
 40
81.0
 40
81.0
 40
82.0
 40
82.0
 40
82.0
 40
83.0
 40
83.0
 40
83.0
 40
84.0
 40
84.0
 40
84.0
 40
85.0
 40
85.0
 40
85.0
 40
86.0
 40
86.0
 40
86.0
 40
87.0
 40
87.0
 40
87.0
 40
88.0
 40
88.0
 40
88.0
 40
89.0
 40
89.0
 40
89.0
 40
90.0
 40
90.0
 40
90.0
 40
91.0
 40
91.0
 40
91.0
 40
92.0
 40
92.0
 40
92.0
 40
93.0
 40
93.0
 40
93.0
 40
94.0
 40
94.0
 40
94.0
 40
95.0
 40
95.0
 40
95.0
 40
96.0
 40
96.0
 40
96.0
 40
97.0
 40
97.0
 40
97.0
 40
98.0
 40
98.0
 40
98.0
 40
99.0
 40
99.0
 40
99.0
 40
100.0
 40
100.0
 40
100.0
 40
101.0
 40
101.0
 40
101.0
 40
102.0
 40
102.0
 40
102.0
 40
103.0
 40
103.0
 40
103.0
 40
104.0
 40
104.0
 40
104.0
 40
105.0
 40
105.0
 40
105.0
 40
106.0
 40
106.0
 40
106.0
 40
107.0
 40
107.0
 40
107.0
 40
108.0
 40
108.0
 40
108.0
 40
109.0
 40
109.0
 40
109.0
 40
110.0
 40
110.0
 40
110.0
 40
111.0
 40
111.0
 40
111.0
 40
112.0
 40
112.0
 40
112.0
 40
113.0
 40
113.0
 40
113.0
 40
114.0
 40
114.0
 40
114.0
 40
115.0
 40
115.0
 40
115.0
 40
116.0
 40
116.0
 40
116.0
 40
117.0
 40
117.0
 40
117.0
 40
118.0
 40
118.0
 40
118.0
 40
119.0
 40
119.0
 40
119.0
 40
120.0
 40
120.0
 40
120.0
 40
121.0
 40
121.0
 40
121.0
 40
122.0
 40
122.0
 40
122.0
 40
123.0
 40
123.0
 40
123.0
 40
124.0
 40
124.0
 40
124.0
 40
125.0
 40
125.0
 40
125.0
 40
126.0
 40
126.0
 40
126.0
 40
127.0
 40
127.0
 40
127.0
 40
128.0
 40
128.0
 40
128.0
 40
129.0
 40
129.0
 40
129.0
 40
130.0
 40
130.0
 40
130.0
 40
131.0
 40
131.0
 40
131.0
 40
132.0
 40
132.0
 40
132.0
 40
133.0
 40
133.0
 40
133.0
 40
134.0
 40
134.0
 40
134.0
 40
135.0
 40
135.0
 40
135.0
 40
136.0
 40
136.0
 40
136.0
 40
137.0
 40
137.0
 40
137.0
 40
138.0
 40
138.0
 40
138.0
 40
139.0
 40
139.0
 40
139.0
 40
140.0
 40
140.0
 40
140.0
 40
141.0
 40
141.0
 40
141.0
 40
142.0
 40
142.0
 40
142.0
 40
143.0
 40
143.0
 40
143.0
 40
144.0
 40
144.0
 40
144.0
 40
145.0
 40
145.0
 40
145.0
 40
146.0
 40
146.0
 40
146.0
 40
147.0
 40
147.0
 40
147.0
 40
148.0
 40
148.0
 40
148.0
 40
149.0
 40
149.0
 40
149.0
 40
150.0
 40
150.0
 40
150.0
 40
151.0
 40
151.0
 40
151.0
 40
152.0
 40
152.0
 40
152.0
 40
153.0
 40
153.0
 40
153.0
 40
154.0
 40
154.0
 40
154.0
 40
155.0
 40
155.0
 40
155.0
 40
156.0
 40
156.0
 40
156.0
 40
157.0
 40
157.0
 40
157.0
 40
158.0
 40
158.0
 40
158.0
 40
159.0
 40
159.0
 40
159.0
 40
160.0
 40
160.0
 40
160.0
 40
161.0
 40
161.0
 40
161.0
 40
162.0
 40
162.0
 40
162.0
 40
163.0
 40
163.0
 40
163.0
 40
164.0
 40
164.0
 40
164.0
 40
165.0
 40
165.0
 40
165.0
 40
166.0
 40
166.0
 40
166.0
 40
167.0
 40
167.0
 40
167.0
 40
168.0
 40
168.0
 40
168.0
 40
169.0
 40
169.0
 40
169.0
 40
170.0
 40
170.0
 40
170.0
 40
171.0
 40
171.0
 40
171.0
 40
172.0
 40
172.0
 40
172.0
 40
173.0
 40
173.0
 40
173.0
 40
174.0
 40
174.0
 40
174.0
 40
175.0
 40
175.0
 40
175.0
 40
176.0
 40
176.0
 40
176.0
 40
177.0
 40
177.0
 40
177.0
 40
178.0
 40
178.0
 40
178.0
 40
179.0
 40
179.0
 40
179.0
 40
180.0
 40
180.0
 40
180.0
 40
181.0
 40
181.0
 40
181.0
 40
182.0
 40
182.0
 40
182.0
 40
183.0
 40
183.0
 40
183.0
 40
184.0
 40
184.0
 40
184.0
 40
185.0
 40
185.0
 40
185.0
 40
186.0
 40
186.0
 40
186.0
 40
187.0
 40
187.0
 40
187.0
 40
188.0
 40
188.0
 40
188.0
 40
189.0
 40
189.0
 40
189.0
 40
190.0
 40
190.0
 40
190.0
 40
191.0
 40
191.0
 40
191.0
 40
192.0
 40
192.0
 40
192.0
 40
193.0
 40
193.0
 40
193.0
 40
194.0
 40
194.0
 40
194.0
 40
195.0
 40
195.0
 40
195.0
 40
196.0
 40
196.0
 40
196.0
 40
197.0
 40
197.0
 40
197.0
 40
198.0
 40
198.0
 40
198.0
 40
199.0
 40
199.0
 40
199.0
 40
200.0
 40
200.0
 40
200.0
 40
201.0
 40
201.0
 40
201.0
 40
202.0
 40
202.0
 40
202.0
 40
203.0
 40
203.0
 40
203.0
 40
204.0
 40
204.0
 40
204.0
 40
205.0
 40
205.0
 40
205.0
 40
206.0
 40
206.0
 40
206.0
 40
207.0
 40
207.0
 40
207.0
 40
208.0
 40
208.0
 40
208.0
 40
209.0
 40
209.0
 40
209.0
 40
210.0
 40
210.0
 40
210.0
 40
211.0
 40
211.0
 40
211.0
 40
212.0
 40
212.0
 40
212.0
 40
213.0
 40
213.0
 40
213.0
 40
214.0
 40
214.0
 40
214.0
 40
215.0
 40
215.0
 40
215.0
 40
216.0
 40
216.0
 40
216.0
 40
217.0
 40
217.0
 40
217.0
 40
218.0
 40
218.0
 40
218.0
 40
219.0
 40
219.0
 40
219.0
 40
220.0
 40
220.0
 40
220.0
 40
221.0
 40
221.0
 40
221.0
 40
222.0
 40
222.0
 40
222.0
 40
223.0
 40
223.0
 40
223.0
 40
224.0
 40
224.0
 40
224.0
 40
225.0
 40
225.0
 40
225.0
 40
226.0
 40
226.0
 40
226.0
 40
227.0
 40
227.0
 40
227.0
 40
228.0
 40
228.0
 40
228.0
 40
229.0
 40
229.0
 40
229.0
 40
230.0
 40
230.0
 40
230.0
 40
231.0
 40
231.0
 40
231.0
 40
232.0
 40
232.0
 40
232.0
 40
233.0
 40
233.0
 40
233.0
 40
234.0
 40
234.0
 40
234.0
 40
235.0
 40
235.0
 40
235.0
 40
236.0
 40
236.0
 40
236.0
 40
237.0
 40
237.0
 40
237.0
 40
238.0
 40
238.0
 40
238.0
 40
239.0
 40
239.0
 40
239.0
 40
240.0
 40
240.0
 40
240.0
 40
241.0
 40
241.0
 40
241.0
 40
242.0
 40
242.0
 40
242.0
 40
243.0
 40
243.0
 40
243.0
 40
244.0
 40
244.0
 40
244.0
 40
245.0
 40
245.0
 40
245.0
 40
246.0
 40
246.0
 40
246.0
 40
247.0
 40
247.0
 40
247.0
 40
248.0
 40
248.0
 40
248.0
 40
249.0
 40
249.0
 40
249.0
 40
250.0
 40
250.0
 40
250.0
 40
251.0
 40
251.0
 40
251.0
 40
252.0
 40
252.0
 40
252.0
 40
253.0
 40
253.0
 40
253.0
 40
254.0
 40
254.0
 40
254.0
 40
255.0
 40
255.0
 40
255.0
 40
256.0
 40
256.0
 40
256.0
 40
257.0
 40
257.0
 40
257.0
 40
258.0
 40
258.0
 40
258.0
 40
259.0
 40
259.0
 40
259.0
 40
260.0
 40
260.0
 40
260.0
 40
261.0
 40
261.0
 40
261.0
 40
262.0
 40
262.0
 40
262.0
 40
263.0
 40
263.0
 40
263.0
 40
264.0
 40
264.0
 40
264.0
 40
265.0
 40
265.0
 40
265.0
 40
266.0
 40
266.0
 40
266.0
 40
267.0
 40
267.0
 40
267.0
 40
268.0
 40
268.0
 40
268.0
 40
269.0
 40
269.0
 40
269.0
 40
270.0
 40
270.0
 40
270.0
 40
271.0
 40
271.0
 40
271.0
 40
272.0
 40
272.0
 40
272.0
 40
273.0
 40
273.0
 40
273.0
 40
274.0
 40
274.0
 40
274.0
 40
275.0
 40
275.0
 40
275.0
 40
276.0
 40
276.0
 40
276.0
 40
277.0
 40
277.0
 40
277.0
 40
278.0
 40
278.0
 40
278.0
 40
279.0
 40
279.0
 40
279.0
 40
280.0
 40
280.0
 40
280.0
 40
281.0
 40
281.0
 40
281.0
 40
282.0
 40
282.0
 40
282.0
 40
283.0
 40
283.0
 40
283.0
 40
284.0
 40
284.0
 40
284.0
 40
285.0
 40
285.0
 40
285.0
 40
286.0
 40
286.0
 40
286.0
 40
287.0
 40
287.0
 40
287.0
 40
288.0
 40
288.0
 40
288.0
 40
289.0
 40
289.0
 40
289.0
 40
290.0
 40
290.0
 40
290.0
 40
291.0
 40
291.0
 40
291.0
 40
292.0
 40
292.0
 40
292.0
 40
293.0
 40
293.0
 40
293.0
 40
294.0
 40
294.0
 40
294.0
 40
295.0
 40
295.0
 40
295.0
 40
296.0
 40
296.0
 40
296.0
 40
297.0
 40
297.0
 40
297.0
 40
298.0
 40
298.0
 40
298.0
 40
299.0
 40
299.0
 40
299.0
 40
300.0
 40
300.0
 40
300.0
 40
301.0
 40
301.0
 40
301.0
 40
302.0
 40
302.0
 40
302.0
 40
303.0
 40
303.0
 40
303.0
 40
304.0
 40
304.0
 40
304.0
 40
305.0
 40
305.0
 40
305.0
 40
306.0
 40
306.0
 40
306.0
 40
307.0
 40
307.0
 40
307.0
 40
308.0
 40
308.0
 40
308.0
 40
309.0
 40
309.0
 40
309.0
 40
310.0
 40
310.0
 40
310.0
 40
311.0
 40
311.0
 40
311.0
 40
312.0
 40
312.0
 40
312.0
 40
313.0
 40
313.0
 40
313.0
 40
314.0
 40
314.0
 40
314.0
 40
315.0
 40
315.0
 40
315.0
 40
316.0
 40
316.0
 40
316.0
 40
317.0
 40
317.0
 40
317.0
 40
318.0
 40
318.0
 40
318.0
 40
319.0
 40
319.0
 40
319.0
 40
320.0
 40
320.0
 40
320.0
 40
321.0
 40
321.0
 40
321.0
 40
322.0
 40
322.0
 40
322.0
 40
323.0
 40
323.0
 40
323.0
 40
324.0
 40
324.0
 40
324.0
 40
325.0
 40
325.0
 40
325.0
 40
326.0
 40
326.0
 40
326.0
 40
327.0
 40
327.0
 40
327.0
 40
328.0
 40
328.0
 40
328.0
 40
329.0
 40
329.0
 40
329.0
 40
330.0
 40
330.0
 40
330.0
 40
331.0
 40
331.0
 40
331.0
 40
332.0
 40
332.0
 40
332.0
 40
333.0
 40
333.0
 40
333.0
 40
334.0
 40
334.0
 40
334.0
 40
335.0
 40
335.0
 40
335.0
 40
336.0
 40
336.0
 40
336.0
 40
337.0
 40
337.0
 40
337.0
 40
338.0
 40
338.0
 40
338.0
 40
339.0
 40
339.0
 40
339.0
 40
340.0
 40
340.0
 40
340.0
 40
341.0
 40
341.0
 40
341.0
 40
342.0
 40
342.0
 40
342.0
 40
342.0
 10
4.777777777777778
 20
3.139860894944932
 30
0.0
 10
4.777785407172309
 20
3.232375992668999
 30
0.0
 10
4.734771728515625
 20
3.319634119669596
 30
0.0
 10
4.661388821072048
 20
3.375972006056044
 30
0.0
 10
4.661388821072048
 20
3.375972006056044
 30
0.0
 10
4.668611314561631
 20
3.381666501363118
 30
0.0
 10
4.668611314561631
 20
3.381666501363118
 30
0.0
 10
4.672361585828993
 20
3.384722073872884
 30
0.0
 10
4.67611100938585
 20
3.387916458977593
 30
0.0
 10
4.679722256130642
 20
3.391249868604872
 30
0.0
 10
4.683333502875434
 20
3.394583278232151
 30
0.0
 10
4.686944749620225
 20
3.397916581895616
 30
0.0
 10
4.690277947319879
 20
3.401388804117838
 30
0.0
 10
4.693611145019531
 20
3.404861026340061
 30
0.0
 10
4.697222391764322
 20
3.408472167121039
 30
0.0
 10
4.700416564941406
 20
3.412083201938205
 30
0.0
 10
4.703610738118489
 20
3.415694236755371
 30
0.0
 10
4.706943935818142
 20
3.41930537753635
 30
0.0
 10
4.70999993218316
 20
3.423194355434841
 30
0.0
 10
4.70999993218316
 20
3.423194355434841
 30
0.0
 10
4.719028049045138
 20
3.434860971238878
 30
0.0
 10
4.719028049045138
 20
3.434860971238878
 30
0.0
 10
4.721945020887587
 20
3.438749843173557
 30
0.0
 10
4.724722120496962
 20
3.442777633666992
 30
0.0
 10
4.727361043294271
 20
3.446805424160427
 30
0.0
 10
4.729999966091579
 20
3.450833214653863
 30
0.0
 10
4.732638888888888
 20
3.454999817742241
 30
0.0
 10
4.735138787163629
 20
3.459166526794434
 30
0.0
 10
4.737638685438368
 20
3.463333235846625
 30
0.0
 10
4.739999559190538
 20
3.467638757493761
 30
0.0
 10
4.742361280653212
 20
3.471944279140896
 30
0.0
 10
4.744723002115885
 20
3.476249800788032
 30
0.0
 10
4.746944851345486
 20
3.48055542839898
 30
0.0
 10
4.749027676052517
 20
3.484999868604872
 30
0.0
 10
4.751110500759548
 20
3.489444308810764
 30
0.0
 10
4.753055148654513
 20
3.493888749016655
 30
0.0
 10
4.75486077202691
 20
3.498888757493761
 30
0.0
 10
4.756666395399305
 20
3.503888765970866
 30
0.0
 10
4.758611043294271
 20
3.508055475023057
 30
0.0
 10
4.760138617621528
 20
3.512777646382649
 30
0.0
 10
4.761666191948785
 20
3.517499817742241
 30
0.0
 10
4.763332790798611
 20
3.521944363911946
 30
0.0
 10
4.764722188313802
 20
3.526666535271538
 30
0.0
 10
4.766111585828993
 20
3.53138870663113
 30
0.0
 10
4.76750013563368
 20
3.535972065395779
 30
0.0
 10
4.768611484103732
 20
3.540555424160427
 30
0.0
 10
4.769722832573785
 20
3.545138782925076
 30
0.0
 10
4.770833333333333
 20
3.550138791402181
 30
0.0
 10
4.771805657280816
 20
3.554444313049316
 30
0.0
 10
4.772777981228298
 20
3.558749834696452
 30
0.0
 10
4.773611280653212
 20
3.56402768029107
 30
0.0
 10
4.774444580078125
 20
3.568333201938205
 30
0.0
 10
4.775277879503038
 20
3.572638723585341
 30
0.0
 10
4.775694953070746
 20
3.577916569179958
 30
0.0
 10
4.776111178927951
 20
3.582222090827094
 30
0.0
 10
4.776527404785156
 20
3.586527612474229
 30
0.0
 10
4.776944478352864
 20
3.591944270663791
 30
0.0
 10
4.777361551920572
 20
3.596110979715983
 30
0.0
 10
4.777778625488281
 20
3.600277688768175
 30
0.0
 10
4.777361551920572
 20
3.605972078111436
 30
0.0
 10
4.777361551920572
 20
3.610833168029785
 30
0.0
 10
4.777361551920572
 20
3.615694257948133
 30
0.0
 10
4.777361551920572
 20
3.620694266425239
 30
0.0
 10
4.777361551920572
 20
3.625416543748643
 30
0.0
 10
4.777361551920572
 20
3.630138821072048
 30
0.0
 10
4.777361551920572
 20
3.635277642144097
 30
0.0
 10
4.776111178927951
 20
3.639999919467502
 30
0.0
 10
4.774860805935329
 20
3.644722196790907
 30
0.0
 10
4.774999830457899
 20
3.649722099304199
 30
0.0
 10
4.774444580078125
 20
3.653888808356391
 30
0.0
 10
4.77388932969835
 20
3.658055517408583
 30
0.0
 10
4.772777981228298
 20
3.663472175598145
 30
0.0
 10
4.771805657280816
 20
3.66777769724528
 30
0.0
 10
4.770833333333333
 20
3.672083218892415
 30
0.0
 10
4.769721984863281
 20
3.677361064487033
 30
0.0
 10
4.768611484103732
 20
3.681666586134169
 30
0.0
 10
4.767500983344184
 20
3.685972107781304
 30
0.0
 10
4.766111585828993
 20
3.691111034817165
 30
0.0
 10
4.764722188313802
 20
3.695555475023057
 30
0.0
 10
4.763332790798611
 20
3.69999991522895
 30
0.0
 10
4.761805216471354
 20
3.704861005147298
 30
0.0
 10
4.760138617621528
 20
3.709444363911946
 30
0.0
 10
4.758472018771701
 20
3.714027722676595
 30
0.0
 10
4.756666395399305
 20
3.718611081441243
 30
0.0
 10
4.75486077202691
 20
3.723333252800835
 30
0.0
 10
4.753055148654513
 20
3.728055424160427
 30
0.0
 10
4.751110500759548
 20
3.732361051771376
 30
0.0
 10
4.749027676052517
 20
3.737222141689724
 30
0.0
 10
4.746944851345486
 20
3.742083231608073
 30
0.0
 10
4.744722154405381
 20
3.745972103542751
 30
0.0
 10
4.742361280653212
 20
3.7502777311537
 30
0.0
 10
4.740000406901041
 20
3.754583358764648
 30
0.0
 10
4.737638685438368
 20
3.758888880411784
 30
0.0
 10
4.735138787163629
 20
3.762916670905219
 30
0.0
 10
4.732638888888888
 20
3.766944461398654
 30
0.0
 10
4.729999966091579
 20
3.77124998304579
 30
0.0
 10
4.727361043294271
 20
3.775416692097981
 30
0.0
 10
4.724722120496962
 20
3.779583401150173
 30
0.0
 10
4.721944173177083
 20
3.783472273084852
 30
0.0
 10
4.719028049045138
 20
3.787361145019531
 30
0.0
 10
4.719028049045138
 20
3.787361145019531
 30
0.0
 10
4.70999993218316
 20
3.799027760823567
 30
0.0
 10
4.70999993218316
 20
3.799027760823567
 30
0.0
 10
4.706944783528646
 20
3.80277771419949
 30
0.0
 10
4.703749762641059
 20
3.806527773539225
 30
0.0
 10
4.700416564941406
 20
3.810138914320204
 30
0.0
 10
4.697083367241754
 20
3.813750055101182
 30
0.0
 10
4.694444444444444
 20
3.819722069634331
 30
0.0
 10
4.690416971842447
 20
3.823055373297797
 30
0.0
 10
4.686389499240451
 20
3.826388676961263
 30
0.0
 10
4.683472527398004
 20
3.829860899183485
 30
0.0
 10
4.679861280653212
 20
3.833194308810764
 30
0.0
 10
4.67625003390842
 20
3.836527718438042
 30
0.0
 10
4.672499762641059
 20
3.839722103542751
 30
0.0
 10
4.668750339084201
 20
3.842777676052517
 30
0.0
 10
4.668750339084201
 20
3.842777676052517
 30
0.0
 10
4.657222323947482
 20
3.851805475023057
 30
0.0
 10
4.657222323947482
 20
3.851805475023057
 30
0.0
 10
4.653333028157552
 20
3.854722128974067
 30
0.0
 10
4.649305555555555
 20
3.857499970330132
 30
0.0
 10
4.645278082953559
 20
3.860138787163628
 30
0.0
 10
4.641250610351562
 20
3.862777603997124
 30
0.0
 10
4.637083265516493
 20
3.865416526794434
 30
0.0
 10
4.632777743869357
 20
3.867916531032986
 30
0.0
 10
4.628472222222222
 20
3.870416535271538
 30
0.0
 10
4.624444749620225
 20
3.872777620951334
 30
0.0
 10
4.62013922797309
 20
3.87513870663113
 30
0.0
 10
4.615833706325954
 20
3.877499792310926
 30
0.0
 10
4.61138916015625
 20
3.879722065395779
 30
0.0
 10
4.607083638509114
 20
3.881805419921875
 30
0.0
 10
4.607083638509114
 20
3.881805419921875
 30
0.0
 10
4.593194749620225
 20
3.887638727823893
 30
0.0
 10
4.593194749620225
 20
3.887638727823893
 30
0.0
 10
4.588750203450521
 20
3.889444245232476
 30
0.0
 10
4.58402845594618
 20
3.891388681199815
 30
0.0
 10
4.579305860731337
 20
3.892916467454698
 30
0.0
 10
4.579305860731337
 20
3.892916467454698
 30
0.0
 10
4.565416971842447
 20
3.897499826219347
 30
0.0
 10
4.565416971842447
 20
3.897499826219347
 30
0.0
 10
4.565416971842447
 20
3.897499826219347
 30
0.0
 10
4.551528082953559
 20
3.901388698154026
 30
0.0
 10
4.551528082953559
 20
3.901388698154026
 30
0.0
 10
4.551528082953559
 20
3.901388698154026
 30
0.0
 10
4.53763919406467
 20
3.904583189222548
 30
0.0
 10
4.53763919406467
 20
3.904583189222548
 30
0.0
 10
4.53763919406467
 20
3.904583189222548
 30
0.0
 10
4.523750305175781
 20
3.907222112019856
 30
0.0
 10
4.523750305175781
 20
3.907222112019856
 30
0.0
 10
4.519027709960938
 20
3.907222112019856
 30
0.0
 10
4.514027913411458
 20
3.908472061157227
 30
0.0
 10
4.509861416286892
 20
3.90902762942844
 30
0.0
 10
4.505694919162326
 20
3.909583197699653
 30
0.0
 10
4.500139024522569
 20
3.909860928853353
 30
0.0
 10
4.495972527398004
 20
3.910277578565809
 30
0.0
 10
4.486111111111111
 20
3.910277578565809
 30
0.0
 10
4.476250542534722
 20
3.910277578565809
 30
0.0
 10
4.466528150770399
 20
3.910277578565809
 30
0.0
 10
4.461805555555555
 20
3.910277578565809
 30
0.0
 10
4.456805759006076
 20
3.910277578565809
 30
0.0
 10
4.451944986979166
 20
3.90902762942844
 30
0.0
 10
4.451944986979166
 20
3.90902762942844
 30
0.0
 10
4.438056098090278
 20
3.907222112019856
 30
0.0
 10
4.438056098090278
 20
3.907222112019856
 30
0.0
 10
4.438056098090278
 20
3.907222112019856
 30
0.0
 10
4.424167209201388
 20
3.904583189222548
 30
0.0
 10
4.424167209201388
 20
3.904583189222548
 30
0.0
 10
4.424167209201388
 20
3.904583189222548
 30
0.0
 10
4.4102783203125
 20
3.901388698154026
 30
0.0
 10
4.4102783203125
 20
3.901388698154026
 30
0.0
 10
4.4102783203125
 20
3.901388698154026
 30
0.0
 10
4.396389431423611
 20
3.897499826219347
 30
0.0
 10
4.396389431423611
 20
3.897499826219347
 30
0.0
 10
4.396389431423611
 20
3.897499826219347
 30
0.0
 10
4.382500542534722
 20
3.892916467454698
 30
0.0
 10
4.382500542534722
 20
3.892916467454698
 30
0.0
 10
4.377916971842447
 20
3.891249762641059
 30
0.0
 10
4.373334248860677
 20
3.889444245232476
 30
0.0
 10
4.368611653645833
 20
3.887638727823893
 30
0.0
 10
4.363889058430989
 20
3.88583321041531
 30
0.0
 10
4.359583536783854
 20
3.883888774447971
 30
0.0
 10
4.354722764756945
 20
3.881805419921875
 30
0.0
 10
4.349861992730035
 20
3.879722065395779
 30
0.0
 10
4.345972696940104
 20
3.877499898274739
 30
0.0
 10
4.341667175292969
 20
3.87513870663113
 30
0.0
 10
4.337361653645833
 20
3.872777514987522
 30
0.0
 10
4.333056131998697
 20
3.870416535271538
 30
0.0
 10
4.328889634874132
 20
3.867916531032986
 30
0.0
 10
4.328889634874132
 20
3.867916531032986
 30
0.0
 10
4.3165283203125
 20
3.860138787163628
 30
0.0
 10
4.3165283203125
 20
3.860138787163628
 30
0.0
 10
4.312500847710504
 20
3.857499864366319
 30
0.0
 10
4.308472527398004
 20
3.854722128974067
 30
0.0
 10
4.304584079318576
 20
3.851805475023057
 30
0.0
 10
4.304584079318576
 20
3.851805475023057
 30
0.0
 10
4.292917039659288
 20
3.842777676052517
 30
0.0
 10
4.292917039659288
 20
3.842777676052517
 30
0.0
 10
4.289166768391927
 20
3.839722103542751
 30
0.0
 10
4.28541734483507
 20
3.836527718438042
 30
0.0
 10
4.281806098090278
 20
3.833194308810764
 30
0.0
 10
4.278194851345486
 20
3.829860899183485
 30
0.0
 10
4.274583604600695
 20
3.82652759552002
 30
0.0
 10
4.271111382378472
 20
3.823055373297797
 30
0.0
 10
4.26763916015625
 20
3.819583151075575
 30
0.0
 10
4.264305962456597
 20
3.815972010294596
 30
0.0
 10
4.260972764756945
 20
3.81236097547743
 30
0.0
 10
4.257639567057291
 20
3.808749940660265
 30
0.0
 10
4.254445393880208
 20
3.804999881320529
 30
0.0
 10
4.251389397515191
 20
3.801249821980794
 30
0.0
 10
4.248333401150173
 20
3.797499762641059
 30
0.0
 10
4.24527825249566
 20
3.79361089070638
 30
0.0
 10
4.242361280653212
 20
3.789583206176758
 30
0.0
 10
4.239444308810763
 20
3.785555521647135
 30
0.0
 10
4.236667209201388
 20
3.781666543748643
 30
0.0
 10
4.234028286404079
 20
3.777638753255208
 30
0.0
 10
4.231389363606771
 20
3.773610962761773
 30
0.0
 10
4.228750440809462
 20
3.769444359673394
 30
0.0
 10
4.226250542534722
 20
3.765138732062446
 30
0.0
 10
4.223750644259982
 20
3.760833104451497
 30
0.0
 10
4.2227783203125
 20
3.759166505601671
 30
0.0
 10
4.221111721462673
 20
3.756110933091905
 30
0.0
 10
4.141434563530816
 20
3.900241957770453
 30
0.0
 10
3.96000247531467
 20
3.952492078145345
 30
0.0
 10
3.815871344672309
 20
3.872814920213487
 30
0.0
 10
3.766764322916667
 20
3.845668262905544
 30
0.0
 10
3.726313273111979
 20
3.805217425028483
 30
0.0
 10
3.699167039659288
 20
3.756110933091905
 30
0.0
 10
3.619420369466146
 20
3.900203598870171
 30
0.0
 10
3.437962849934896
 20
3.952366299099392
 30
0.0
 10
3.293869866265191
 20
3.872619734870063
 30
0.0
 10
3.244862026638454
 20
3.845496707492404
 30
0.0
 10
3.204484727647569
 20
3.805118878682454
 30
0.0
 10
3.177361382378472
 20
3.756110933091905
 30
0.0
 10
3.09745619032118
 20
3.900203598870171
 30
0.0
 10
2.915870666503906
 20
3.952238082885742
 30
0.0
 10
2.771777682834201
 20
3.872333102756076
 30
0.0
 10
2.722919040256076
 20
3.845239003499349
 30
0.0
 10
2.682650248209635
 20
3.804969787597656
 30
0.0
 10
2.655555725097656
 20
3.756110933091905
 30
0.0
 10
2.575809054904514
 20
3.900203598870171
 30
0.0
 10
2.394351535373264
 20
3.952366299099392
 30
0.0
 10
2.250258551703559
 20
3.872619734870063
 30
0.0
 10
2.201250712076823
 20
3.845496707492404
 30
0.0
 10
2.160873413085938
 20
3.805118878682454
 30
0.0
 10
2.13375006781684
 20
3.756110933091905
 30
0.0
 10
2.053844875759549
 20
3.900203598870171
 30
0.0
 10
1.872259351942274
 20
3.952238082885742
 30
0.0
 10
1.728166368272569
 20
3.872333102756076
 30
0.0
 10
1.679307725694444
 20
3.845239003499349
 30
0.0
 10
1.639038933648003
 20
3.804969787597656
 30
0.0
 10
1.611944410536024
 20
3.756110933091905
 30
0.0
 10
1.532197740342882
 20
3.900203598870171
 30
0.0
 10
1.350740220811632
 20
3.952366299099392
 30
0.0
 10
1.206647237141927
 20
3.872619734870063
 30
0.0
 10
1.157639397515191
 20
3.845496707492404
 30
0.0
 10
1.117262098524306
 20
3.805118878682454
 30
0.0
 10
1.090138753255208
 20
3.756110933091905
 30
0.0
 10
1.010461595323351
 20
3.900241957770453
 30
0.0
 10
0.8290295071072048
 20
3.952492078145345
 30
0.0
 10
0.6848983764648438
 20
3.872814920213487
 30
0.0
 10
0.6357913547092013
 20
3.845668262905544
 30
0.0
 10
0.5953403049045138
 20
3.805217425028483
 30
0.0
 10
0.5681940714518229
 20
3.756110933091905
 30
0.0
 10
0.5665274726019965
 20
3.759166505601671
 30
0.0
 10
0.5648608737521701
 20
3.762222078111436
 30
0.0
 10
0.5630552503797742
 20
3.765138732062446
 30
0.0
 10
0.5612496270073785
 20
3.768055386013454
 30
0.0
 10
0.5579164293077257
 20
3.773472044203016
 30
0.0
 10
0.5552775065104166
 20
3.777638753255208
 30
0.0
 10
0.5526385837131076
 20
3.7818054623074
 30
0.0
 10
0.5498606363932291
 20
3.785694334242079
 30
0.0
 10
0.5469445122612847
 20
3.789583206176758
 30
0.0
 10
0.5440283881293403
 20
3.793472078111436
 30
0.0
 10
0.5411114162868923
 20
3.797360950046115
 30
0.0
 10
0.5379163953993056
 20
3.801249821980794
 30
0.0
 10
0.5347213745117188
 20
3.805138693915473
 30
0.0
 10
0.5316662258572048
 20
3.808749834696452
 30
0.0
 10
0.528333028157552
 20
3.81236097547743
 30
0.0
 10
0.5249998304578993
 20
3.815972116258409
 30
0.0
 10
0.5216666327582465
 20
3.819583151075575
 30
0.0
 10
0.5181944105360243
 20
3.823055373297797
 30
0.0
 10
0.514722188313802
 20
3.82652759552002
 30
0.0
 10
0.5112499660915798
 20
3.829999817742241
 30
0.0
 10
0.5076387193467882
 20
3.833194308810764
 30
0.0
 10
0.5040274726019965
 20
3.836388799879286
 30
0.0
 10
0.5002772013346354
 20
3.839722103542751
 30
0.0
 10
0.4965277777777777
 20
3.842777676052517
 30
0.0
 10
0.4965277777777777
 20
3.842777676052517
 30
0.0
 10
0.484999762641059
 20
3.851805475023057
 30
0.0
 10
0.484999762641059
 20
3.851805475023057
 30
0.0
 10
0.4811104668511285
 20
3.85458321041531
 30
0.0
 10
0.4770829942491319
 20
3.857499970330132
 30
0.0
 10
0.472916497124566
 20
3.860138787163628
 30
0.0
 10
0.46875
 20
3.862777603997124
 30
0.0
 10
0.4647216796875
 20
3.865416526794434
 30
0.0
 10
0.460555182562934
 20
3.867916531032986
 30
0.0
 10
0.456388685438368
 20
3.870416535271538
 30
0.0
 10
0.4522221883138021
 20
3.872777620951334
 30
0.0
 10
0.4479166666666666
 20
3.87513870663113
 30
0.0
 10
0.4436111450195312
 20
3.877499792310926
 30
0.0
 10
0.4391665988498263
 20
3.879722065395779
 30
0.0
 10
0.434861077202691
 20
3.881805419921875
 30
0.0
 10
0.434861077202691
 20
3.881805419921875
 30
0.0
 10
0.4209721883138021
 20
3.887638727823893
 30
0.0
 10
0.4209721883138021
 20
3.887638727823893
 30
0.0
 10
0.4163886176215277
 20
3.889444245232476
 30
0.0
 10
0.4118058946397569
 20
3.891388681199815
 30
0.0
 10
0.4070832994249132
 20
3.892916467454698
 30
0.0
 10
0.4070832994249132
 20
3.892916467454698
 30
0.0
 10
0.3931944105360243
 20
3.897499826219347
 30
0.0
 10
0.3931944105360243
 20
3.897499826219347
 30
0.0
 10
0.3931944105360243
 20
3.897499826219347
 30
0.0
 10
0.3793055216471354
 20
3.901388698154026
 30
0.0
 10
0.3793055216471354
 20
3.901388698154026
 30
0.0
 10
0.3793055216471354
 20
3.901388698154026
 30
0.0
 10
0.3654166327582465
 20
3.904583189222548
 30
0.0
 10
0.3654166327582465
 20
3.904583189222548
 30
0.0
 10
0.3606940375434027
 20
3.905555407206217
 30
0.0
 10
0.355833265516493
 20
3.90638870663113
 30
0.0
 10
0.3515277438693576
 20
3.9070831934611
 30
0.0
 10
0.3472222222222222
 20
3.90777768029107
 30
0.0
 10
0.3418053521050347
 20
3.908472061157227
 30
0.0
 10
0.3376388549804688
 20
3.908888710869683
 30
0.0
 10
0.3334723578559027
 20
3.90930536058214
 30
0.0
 10
0.3279164632161458
 20
3.909722010294596
 30
0.0
 10
0.3230556911892361
 20
3.910138660007053
 30
0.0
 10
0.3133332994249132
 20
3.910138660007053
 30
0.0
 10
0.3034727308485243
 20
3.910138660007053
 30
0.0
 10
0.2936113145616319
 20
3.910138660007053
 30
0.0
 10
0.2888887193467882
 20
3.910138660007053
 30
0.0
 10
0.283888922797309
 20
3.910138660007053
 30
0.0
 10
0.2790281507703993
 20
3.908888710869683
 30
0.0
 10
0.2741673787434896
 20
3.907638761732313
 30
0.0
 10
0.2693057590060764
 20
3.907777574327257
 30
0.0
 10
0.2651392618815104
 20
3.9070831934611
 30
0.0
 10
0.2609727647569444
 20
3.906388812594944
 30
0.0
 10
0.2555558946397569
 20
3.905555407206217
 30
0.0
 10
0.2512503729926215
 20
3.904583189222548
 30
0.0
 10
0.2512503729926215
 20
3.904583189222548
 30
0.0
 10
0.2373614841037326
 20
3.901388698154026
 30
0.0
 10
0.2373614841037326
 20
3.901388698154026
 30
0.0
 10
0.2373614841037326
 20
3.901388698154026
 30
0.0
 10
0.2234725952148438
 20
3.897499826219347
 30
0.0
 10
0.2234725952148438
 20
3.897499826219347
 30
0.0
 10
0.2234725952148438
 20
3.897499826219347
 30
0.0
 10
0.2095837063259549
 20
3.892916467454698
 30
0.0
 10
0.2095837063259549
 20
3.892916467454698
 30
0.0
 10
0.2050001356336806
 20
3.891249762641059
 30
0.0
 10
0.2004174126519097
 20
3.889444245232476
 30
0.0
 10
0.195694817437066
 20
3.887638727823893
 30
0.0
 10
0.1909722222222222
 20
3.88583321041531
 30
0.0
 10
0.1866667005750868
 20
3.883888774447971
 30
0.0
 10
0.1818059285481771
 20
3.881805419921875
 30
0.0
 10
0.1769451565212674
 20
3.879722065395779
 30
0.0
 10
0.1730558607313368
 20
3.877499898274739
 30
0.0
 10
0.1687503390842014
 20
3.87513870663113
 30
0.0
 10
0.164444817437066
 20
3.872777514987522
 30
0.0
 10
0.1601392957899306
 20
3.870416535271538
 30
0.0
 10
0.1559727986653646
 20
3.867916531032986
 30
0.0
 10
0.1559727986653646
 20
3.867916531032986
 30
0.0
 10
0.1436114841037326
 20
3.860138787163628
 30
0.0
 10
0.1436114841037326
 20
3.860138787163628
 30
0.0
 10
0.1395840115017361
 20
3.857499864366319
 30
0.0
 10
0.1355556911892361
 20
3.85458321041531
 30
0.0
 10
0.131667243109809
 20
3.851805475023057
 30
0.0
 10
0.131667243109809
 20
3.851805475023057
 30
0.0
 10
0.1200002034505208
 20
3.842777676052517
 30
0.0
 10
0.1200002034505208
 20
3.842777676052517
 30
0.0
 10
0.1162499321831597
 20
3.839722103542751
 30
0.0
 10
0.1125005086263021
 20
3.836527718438042
 30
0.0
 10
0.1088892618815104
 20
3.833194308810764
 30
0.0
 10
0.1052780151367188
 20
3.829860899183485
 30
0.0
 10
0.1016667683919271
 20
3.82652759552002
 30
0.0
 10
0.0981945461697049
 20
3.823055373297797
 30
0.0
 10
0.0947223239474826
 20
3.819583151075575
 30
0.0
 10
0.0913891262478299
 20
3.816110928853353
 30
0.0
 10
0.0880559285481771
 20
3.81236097547743
 30
0.0
 10
0.0847227308485243
 20
3.808611022101508
 30
0.0
 10
0.081528557671441
 20
3.804999881320529
 30
0.0
 10
0.0784725613064236
 20
3.801249821980794
 30
0.0
 10
0.0754165649414062
 20
3.797499762641059
 30
0.0
 10
0.0722223917643229
 20
3.79361089070638
 30
0.0
 10
0.0694444444444444
 20
3.789583206176758
 30
0.0
 10
0.066666497124566
 20
3.785555521647135
 30
0.0
 10
0.0637503729926215
 20
3.781666543748643
 30
0.0
 10
0.0609724256727431
 20
3.777638753255208
 30
0.0
 10
0.0581944783528646
 20
3.773610962761773
 30
0.0
 10
0.055694580078125
 20
3.769444359673394
 30
0.0
 10
0.0533337063259549
 20
3.765138732062446
 30
0.0
 10
0.0509728325737847
 20
3.760833104451497
 30
0.0
 10
0.0484729342990451
 20
3.756805419921875
 30
0.0
 10
0.0461112128363715
 20
3.752499792310926
 30
0.0
 10
0.0437494913736979
 20
3.748194164699978
 30
0.0
 10
0.0416666666666667
 20
3.743888643052843
 30
0.0
 10
0.0395838419596354
 20
3.739444202846951
 30
0.0
 10
0.0375010172526042
 20
3.734999762641059
 30
0.0
 10
0.0355563693576389
 20
3.730555322435167
 30
0.0
 10
0.0337507459852431
 20
3.725555313958062
 30
0.0
 10
0.0319451226128472
 20
3.720555305480957
 30
0.0
 10
0.0300004747178819
 20
3.716388596428765
 30
0.0
 10
0.028472900390625
 20
3.711666425069173
 30
0.0
 10
0.0269453260633681
 20
3.706944253709581
 30
0.0
 10
0.0252787272135417
 20
3.702499707539876
 30
0.0
 10
0.0238893296983507
 20
3.697777536180284
 30
0.0
 10
0.0224999321831597
 20
3.693055364820692
 30
0.0
 10
0.0211113823784722
 20
3.688333087497287
 30
0.0
 10
0.0200000339084201
 20
3.683888647291395
 30
0.0
 10
0.0188886854383681
 20
3.679444207085503
 30
0.0
 10
0.0177781846788194
 20
3.674305280049642
 30
0.0
 10
0.0168058607313368
 20
3.669999758402506
 30
0.0
 10
0.0158335367838542
 20
3.665694236755371
 30
0.0
 10
0.015000237358941
 20
3.660416391160753
 30
0.0
 10
0.0141669379340278
 20
3.656110869513618
 30
0.0
 10
0.0133336385091146
 20
3.651805347866482
 30
0.0
 10
0.0129165649414062
 20
3.64638868967692
 30
0.0
 10
0.0123613145616319
 20
3.642221980624729
 30
0.0
 10
0.0118060641818576
 20
3.638055271572536
 30
0.0
 10
0.0115280151367188
 20
3.632360882229275
 30
0.0
 10
0.0111109415690104
 20
3.62763860490587
 30
0.0
 10
0.0106938680013021
 20
3.622916327582465
 30
0.0
 10
0.0111109415690104
 20
3.617777506510417
 30
0.0
 10
0.0111109415690104
 20
3.612916416592068
 30
0.0
 10
0.0111109415690104
 20
3.608055326673719
 30
0.0
 10
0.0111109415690104
 20
3.603194236755371
 30
0.0
 10
0.0111109415690104
 20
3.598333040873209
 30
0.0
 10
0.0111109415690104
 20
3.593471844991048
 30
0.0
 10
0.0111109415690104
 20
3.588471942477756
 30
0.0
 10
0.0123613145616319
 20
3.583749665154351
 30
0.0
 10
0.0136116875542535
 20
3.579027387830946
 30
0.0
 10
0.013472663031684
 20
3.574027485317654
 30
0.0
 10
0.0141669379340278
 20
3.569860776265462
 30
0.0
 10
0.0148612128363715
 20
3.56569406721327
 30
0.0
 10
0.0158335367838542
 20
3.560277409023708
 30
0.0
 10
0.0168058607313368
 20
3.555971887376573
 30
0.0
 10
0.0177781846788194
 20
3.551666365729438
 30
0.0
 10
0.0188895331488715
 20
3.54638852013482
 30
0.0
 10
0.0200000339084201
 20
3.542082998487684
 30
0.0
 10
0.0211105346679688
 20
3.537777476840549
 30
0.0
 10
0.0224999321831597
 20
3.532638549804688
 30
0.0
 10
0.0238893296983507
 20
3.528194109598795
 30
0.0
 10
0.0252787272135417
 20
3.523749669392903
 30
0.0
 10
0.0268063015407986
 20
3.518888579474555
 30
0.0
 10
0.028472900390625
 20
3.514305220709907
 30
0.0
 10
0.0301394992404514
 20
3.509721861945258
 30
0.0
 10
0.0319451226128472
 20
3.50513850318061
 30
0.0
 10
0.0337507459852431
 20
3.500416331821018
 30
0.0
 10
0.0355563693576389
 20
3.495694160461426
 30
0.0
 10
0.0375010172526042
 20
3.491527451409234
 30
0.0
 10
0.0395838419596354
 20
3.486527442932129
 30
0.0
 10
0.0416666666666667
 20
3.481527434455024
 30
0.0
 10
0.0438893636067708
 20
3.477777481079102
 30
0.0
 10
0.0461112128363715
 20
3.473471853468153
 30
0.0
 10
0.0483330620659722
 20
3.469166225857204
 30
0.0
 10
0.0508338080512153
 20
3.464860704210069
 30
0.0
 10
0.0533337063259549
 20
3.460832913716634
 30
0.0
 10
0.0558336046006944
 20
3.456805123223198
 30
0.0
 10
0.0584725273980035
 20
3.452499601576063
 30
0.0
 10
0.0609724256727431
 20
3.448471811082628
 30
0.0
 10
0.0634723239474826
 20
3.444444020589192
 30
0.0
 10
0.0665283203125
 20
3.440277417500814
 30
0.0
 10
0.0694444444444444
 20
3.436388439602322
 30
0.0
 10
0.0723605685763889
 20
3.43249946170383
 30
0.0
 10
0.0752775404188368
 20
3.428610695732964
 30
0.0
 10
0.0784725613064236
 20
3.424721823798285
 30
0.0
 10
0.0816675821940104
 20
3.420832951863606
 30
0.0
 10
0.0847227308485243
 20
3.417221811082628
 30
0.0
 10
0.0880559285481771
 20
3.413610670301649
 30
0.0
 10
0.0913891262478299
 20
3.40999952952067
 30
0.0
 10
0.0947223239474826
 20
3.406388494703505
 30
0.0
 10
0.0981945461697049
 20
3.402916272481282
 30
0.0
 10
0.1016667683919271
 20
3.39944405025906
 30
0.0
 10
0.1052780151367188
 20
3.396110746595594
 30
0.0
 10
0.1088892618815104
 20
3.392777336968316
 30
0.0
 10
0.1125005086263021
 20
3.389443927341037
 30
0.0
 10
0.1161117553710938
 20
3.386249542236328
 30
0.0
 10
0.1200002034505208
 20
3.383193969726562
 30
0.0
 10
0.1200002034505208
 20
3.383193969726562
 30
0.0
 10
0.1272226969401042
 20
3.377499474419488
 30
0.0
 10
0.1272226969401042
 20
3.377499474419488
 30
0.0
 10
-0.0031780666775174
 20
3.276911629570855
 30
0.0
 10
-0.0273454454210069
 20
3.089658631218804
 30
0.0
 10
0.0732421875
 20
2.959258079528809
 30
0.0
 10
0.0888485378689236
 20
2.939025984870063
 30
0.0
 10
0.1069903903537326
 20
2.920883920457628
 30
0.0
 10
0.1272226969401042
 20
2.905277358161078
 30
0.0
 10
-0.0031780666775174
 20
2.804689513312446
 30
0.0
 10
-0.0273462931315104
 20
2.617436408996582
 30
0.0
 10
0.0732421875
 20
2.487035857306586
 30
0.0
 10
0.0888485378689236
 20
2.466803762647841
 30
0.0
 10
0.1069903903537326
 20
2.448661698235405
 30
0.0
 10
0.1272226969401042
 20
2.433055135938856
 30
0.0
 10
-0.0031780666775174
 20
2.332467291090223
 30
0.0
 10
-0.0273462931315104
 20
2.14521418677436
 30
0.0
 10
0.0732421875
 20
2.014813635084364
 30
0.0
 10
0.0888485378689236
 20
1.994581540425618
 30
0.0
 10
0.1069903903537326
 20
1.976439476013184
 30
0.0
 10
0.1272226969401042
 20
1.960832913716634
 30
0.0
 10
-0.0031780666775174
 20
1.860245068868001
 30
0.0
 10
-0.0273462931315104
 20
1.672991964552137
 30
0.0
 10
0.0732421875
 20
1.542591412862142
 30
0.0
 10
0.0888485378689236
 20
1.522359318203396
 30
0.0
 10
0.1069903903537326
 20
1.504217253790961
 30
0.0
 10
0.1272226969401042
 20
1.488610691494412
 30
0.0
 10
-0.0031780666775174
 20
1.388023058573405
 30
0.0
 10
-0.0273462931315104
 20
1.200769742329915
 30
0.0
 10
0.0732421875
 20
1.070369402567545
 30
0.0
 10
0.0888485378689236
 20
1.050137095981174
 30
0.0
 10
0.1069903903537326
 20
1.031994819641113
 30
0.0
 10
0.1272226969401042
 20
1.01638846927219
 30
0.0
 10
-0.0031780666775174
 20
0.9158008363511827
 30
0.0
 10
-0.0273462931315104
 20
0.7285475201076931
 30
0.0
 10
0.0732421875
 20
0.5981471803453233
 30
0.0
 10
0.0888485378689236
 20
0.5779148737589518
 30
0.0
 10
0.1069903903537326
 20
0.5597725974188911
 30
0.0
 10
0.1272226969401042
 20
0.5441662470499674
 30
0.0
 10
0.1272226969401042
 20
0.5441662470499674
 30
0.0
 10
0.1200002034505208
 20
0.5384717517428927
 30
0.0
 10
0.1200002034505208
 20
0.5384717517428927
 30
0.0
 10
0.1162499321831597
 20
0.5354161792331271
 30
0.0
 10
0.1125005086263021
 20
0.5322215822007921
 30
0.0
 10
0.1088892618815104
 20
0.5288883845011393
 30
0.0
 10
0.1052780151367188
 20
0.5255551868014865
 30
0.0
 10
0.1016667683919271
 20
0.522221565246582
 30
0.0
 10
0.0981945461697049
 20
0.5187493430243598
 30
0.0
 10
0.0947223239474826
 20
0.5152771208021376
 30
0.0
 10
0.0913891262478299
 20
0.5116658740573459
 30
0.0
 10
0.0880559285481771
 20
0.5080550511678059
 30
0.0
 10
0.0847227308485243
 20
0.5044442282782661
 30
0.0
 10
0.081528557671441
 20
0.5008329815334743
 30
0.0
 10
0.0784725613064236
 20
0.4969441095987955
 30
0.0
 10
0.0754165649414062
 20
0.4930552376641167
 30
0.0
 10
0.0722223917643229
 20
0.4893053902520074
 30
0.0
 10
0.0694444444444444
 20
0.4852774937947591
 30
0.0
 10
0.066666497124566
 20
0.4812495973375108
 30
0.0
 10
0.0637503729926215
 20
0.477360725402832
 30
0.0
 10
0.0609724256727431
 20
0.4733332528008355
 30
0.0
 10
0.0609724256727431
 20
0.4733332528008355
 30
0.0
 10
0.0533337063259549
 20
0.4609719382392035
 30
0.0
 10
0.0533337063259549
 20
0.4609719382392035
 30
0.0
 10
0.0508338080512153
 20
0.4568054411146376
 30
0.0
 10
0.0484729342990451
 20
0.4524999194675021
 30
0.0
 10
0.0461112128363715
 20
0.448193973965115
 30
0.0
 10
0.0437494913736979
 20
0.4438880284627278
 30
0.0
 10
0.0416666666666667
 20
0.4395829306708441
 30
0.0
 10
0.0395838419596354
 20
0.4351383845011393
 30
0.0
 10
0.0375010172526042
 20
0.4306938383314344
 30
0.0
 10
0.0355563693576389
 20
0.4262492921617296
 30
0.0
 10
0.0337507459852431
 20
0.4212494956122504
 30
0.0
 10
0.0319451226128472
 20
0.4162496990627713
 30
0.0
 10
0.0300004747178819
 20
0.4120827780829535
 30
0.0
 10
0.028472900390625
 20
0.4073606067233615
 30
0.0
 10
0.0269453260633681
 20
0.4026384353637695
 30
0.0
 10
0.0252787272135417
 20
0.3981938891940646
 30
0.0
 10
0.0238893296983507
 20
0.3934717178344727
 30
0.0
 10
0.0224999321831597
 20
0.3887495464748806
 30
0.0
 10
0.0211113823784722
 20
0.3841659757826063
 30
0.0
 10
0.0200000339084201
 20
0.3795828289455838
 30
0.0
 10
0.0188886854383681
 20
0.3749996821085612
 30
0.0
 10
0.0177781846788194
 20
0.3699994617038303
 30
0.0
 10
0.0168058607313368
 20
0.3656939400566949
 30
0.0
 10
0.0158335367838542
 20
0.3613884184095594
 30
0.0
 10
0.015000237358941
 20
0.3561105728149414
 30
0.0
 10
0.0141669379340278
 20
0.351805051167806
 30
0.0
 10
0.0133336385091146
 20
0.3474995295206705
 30
0.0
 10
0.0129165649414062
 20
0.342082659403483
 30
0.0
 10
0.0123613145616319
 20
0.3372218873765733
 30
0.0
 10
0.0118060641818576
 20
0.3323611153496636
 30
0.0
 10
0.0115280151367188
 20
0.3274994956122504
 30
0.0
 10
0.0111109415690104
 20
0.3233329984876844
 30
0.0
 10
0.0106938680013021
 20
0.3191665013631185
 30
0.0
 10
0.0111109415690104
 20
0.3134720060560438
 30
0.0
 10
0.0111109415690104
 20
0.3086108101738824
 30
0.0
 10
0.0111109415690104
 20
0.3037496142917209
 30
0.0
 10
0.0111109415690104
 20
0.2988884184095594
 30
0.0
 10
0.0111109415690104
 20
0.2940276463826497
 30
0.0
 10
0.0111109415690104
 20
0.28916687435574
 30
0.0
 10
0.0111109415690104
 20
0.2841666539510091
 30
0.0
 10
0.0123613145616319
 20
0.2794444825914171
 30
0.0
 10
0.0136116875542535
 20
0.2747223112318251
 30
0.0
 10
0.013472663031684
 20
0.2697220908270942
 30
0.0
 10
0.0141669379340278
 20
0.2655555937025282
 30
0.0
 10
0.0148612128363715
 20
0.2613890965779622
 30
0.0
 10
0.0158335367838542
 20
0.2559722264607747
 30
0.0
 10
0.0168058607313368
 20
0.2516667048136393
 30
0.0
 10
0.0177781846788194
 20
0.2473611831665039
 30
0.0
 10
0.0188895331488715
 20
0.2420833375718858
 30
0.0
 10
0.0200000339084201
 20
0.2377778159247504
 30
0.0
 10
0.0211105346679688
 20
0.233472294277615
 30
0.0
 10
0.0224999321831597
 20
0.2283334732055664
 30
0.0
 10
0.0238893296983507
 20
0.2238889270358615
 30
0.0
 10
0.0252787272135417
 20
0.2194443808661567
 30
0.0
 10
0.0268063015407986
 20
0.2145831849839952
 30
0.0
 10
0.028472900390625
 20
0.2100000381469727
 30
0.0
 10
0.0301394992404514
 20
0.2054168913099501
 30
0.0
 10
0.0319451226128472
 20
0.2008333206176758
 30
0.0
 10
0.0337507459852431
 20
0.1961111492580838
 30
0.0
 10
0.0355563693576389
 20
0.1913889778984917
 30
0.0
 10
0.0375010172526042
 20
0.187222056918674
 30
0.0
 10
0.0395838419596354
 20
0.1822222603691949
 30
0.0
 10
0.0416666666666667
 20
0.1772224638197157
 30
0.0
 10
0.0438893636067708
 20
0.1734721925523546
 30
0.0
 10
0.0461112128363715
 20
0.1691666709052192
 30
0.0
 10
0.0483330620659722
 20
0.1648611492580838
 30
0.0
 10
0.0508338080512153
 20
0.1605556276109484
 30
0.0
 10
0.0533337063259549
 20
0.1565277311537001
 30
0.0
 10
0.0558336046006944
 20
0.1524998346964518
 30
0.0
 10
0.0584725273980035
 20
0.1481943130493164
 30
0.0
 10
0.0609724256727431
 20
0.1441664165920681
 30
0.0
 10
0.0634723239474826
 20
0.1401385201348199
 30
0.0
 10
0.0665283203125
 20
0.1359720230102539
 30
0.0
 10
0.0694444444444444
 20
0.1320831510755751
 30
0.0
 10
0.0723605685763889
 20
0.1281942791408963
 30
0.0
 10
0.0752775404188368
 20
0.1243054072062174
 30
0.0
 10
0.0784725613064236
 20
0.1205555597941081
 30
0.0
 10
0.0816675821940104
 20
0.1168057123819987
 30
0.0
 10
0.0847227308485243
 20
0.1130554411146376
 30
0.0
 10
0.0880559285481771
 20
0.1094446182250977
 30
0.0
 10
0.0913891262478299
 20
0.1058337953355577
 30
0.0
 10
0.0947223239474826
 20
0.1022225485907661
 30
0.0
 10
0.0981945461697049
 20
0.0988889270358615
 30
0.0
 10
0.1016667683919271
 20
0.095555305480957
 30
0.0
 10
0.1052780151367188
 20
0.0919444825914171
 30
0.0
 10
0.1088892618815104
 20
0.088749885559082
 30
0.0
 10
0.1125005086263021
 20
0.085555288526747
 30
0.0
 10
0.1161117553710938
 20
0.0822220908270942
 30
0.0
 10
0.1200002034505208
 20
0.0791665183173286
 30
0.0
 10
0.1200002034505208
 20
0.0791665183173286
 30
0.0
 10
0.131667243109809
 20
0.0701388253106011
 30
0.0
 10
0.131667243109809
 20
0.0701388253106011
 30
0.0
 10
0.1355565388997396
 20
0.0672222773234049
 30
0.0
 10
0.1395840115017361
 20
0.0644443300035265
 30
0.0
 10
0.1436114841037326
 20
0.0618054072062174
 30
0.0
 10
0.1436114841037326
 20
0.0618054072062174
 30
0.0
 10
0.1559727986653646
 20
0.0540276633368598
 30
0.0
 10
0.1559727986653646
 20
0.0540276633368598
 30
0.0
 10
0.1601392957899306
 20
0.0515277650621202
 30
0.0
 10
0.164444817437066
 20
0.0491664674546983
 30
0.0
 10
0.1687503390842014
 20
0.0468055937025282
 30
0.0
 10
0.1730558607313368
 20
0.0444447199503581
 30
0.0
 10
0.1773613823784722
 20
0.0422224468655056
 30
0.0
 10
0.1818059285481771
 20
0.0401387744479709
 30
0.0
 10
0.1862504747178819
 20
0.0380551020304362
 30
0.0
 10
0.1906950208875868
 20
0.0361108779907227
 30
0.0
 10
0.195694817437066
 20
0.0343052546183268
 30
0.0
 10
0.2006946139865451
 20
0.032499631245931
 30
0.0
 10
0.2048611111111111
 20
0.0305554072062174
 30
0.0
 10
0.2095837063259549
 20
0.0290274090237088
 30
0.0
 10
0.2095837063259549
 20
0.0290274090237088
 30
0.0
 10
0.2234725952148438
 20
0.0244442621866862
 30
0.0
 10
0.2234725952148438
 20
0.0244442621866862
 30
0.0
 10
0.2234725952148438
 20
0.0244442621866862
 30
0.0
 10
0.2373614841037326
 20
0.0205553902520074
 30
0.0
 10
0.2373614841037326
 20
0.0205553902520074
 30
0.0
 10
0.2373614841037326
 20
0.0205553902520074
 30
0.0
 10
0.2512503729926215
 20
0.0173607932196723
 30
0.0
 10
0.2512503729926215
 20
0.0173607932196723
 30
0.0
 10
0.2559729682074653
 20
0.0163884692721897
 30
0.0
 10
0.260833740234375
 20
0.0155551698472765
 30
0.0
 10
0.2651392618815104
 20
0.0148608949449327
 30
0.0
 10
0.2694447835286458
 20
0.014166620042589
 30
0.0
 10
0.2748616536458333
 20
0.0134719212849935
 30
0.0
 10
0.2790281507703993
 20
0.0130552715725369
 30
0.0
 10
0.2831946478949652
 20
0.0126386218600803
 30
0.0
 10
0.2888895670572916
 20
0.0122219721476237
 30
0.0
 10
0.2936113145616319
 20
0.0119443469577365
 30
0.0
 10
0.2983330620659722
 20
0.0116667217678494
 30
0.0
 10
0.3034727308485243
 20
0.0119443469577365
 30
0.0
 10
0.308333502875434
 20
0.0119443469577365
 30
0.0
 10
0.3131942749023438
 20
0.0119443469577365
 30
0.0
 10
0.3180558946397569
 20
0.0119443469577365
 30
0.0
 10
0.3229166666666666
 20
0.0119443469577365
 30
0.0
 10
0.3277774386935764
 20
0.0119443469577365
 30
0.0
 10
0.332778082953559
 20
0.0119443469577365
 30
0.0
 10
0.3374998304578993
 20
0.0130552715725369
 30
0.0
 10
0.3422215779622396
 20
0.0141661961873372
 30
0.0
 10
0.3472222222222222
 20
0.0141661961873372
 30
0.0
 10
0.3513887193467882
 20
0.0148608949449327
 30
0.0
 10
0.3555552164713541
 20
0.0155555937025282
 30
0.0
 10
0.3609720865885416
 20
0.0163884692721897
 30
0.0
 10
0.3652776082356771
 20
0.0173607932196723
 30
0.0
 10
0.3652776082356771
 20
0.0173607932196723
 30
0.0
 10
0.379166497124566
 20
0.0205553902520074
 30
0.0
 10
0.379166497124566
 20
0.0205553902520074
 30
0.0
 10
0.379166497124566
 20
0.0205553902520074
 30
0.0
 10
0.3930553860134549
 20
0.0244442621866862
 30
0.0
 10
0.3930553860134549
 20
0.0244442621866862
 30
0.0
 10
0.3930553860134549
 20
0.0244442621866862
 30
0.0
 10
0.4069442749023438
 20
0.0290274090237088
 30
0.0
 10
0.4069442749023438
 20
0.0290274090237088
 30
0.0
 10
0.411527845594618
 20
0.0306940078735352
 30
0.0
 10
0.4161105685763888
 20
0.032499631245931
 30
0.0
 10
0.4208331637912326
 20
0.0343052546183268
 30
0.0
 10
0.4208331637912326
 20
0.0343052546183268
 30
0.0
 10
0.4347220526801215
 20
0.0401387744479709
 30
0.0
 10
0.4347220526801215
 20
0.0401387744479709
 30
0.0
 10
0.4390275743272569
 20
0.0422220230102539
 30
0.0
 10
0.4434721204969618
 20
0.0444442960951063
 30
0.0
 10
0.4477776421440972
 20
0.0468055937025282
 30
0.0
 10
0.4520831637912326
 20
0.0491668913099501
 30
0.0
 10
0.456388685438368
 20
0.0515277650621202
 30
0.0
 10
0.4604161580403646
 20
0.0540276633368598
 30
0.0
 10
0.4644436306423611
 20
0.0565275616115994
 30
0.0
 10
0.4687491522894965
 20
0.0591664844089084
 30
0.0
 10
0.4727774726019965
 20
0.0618054072062174
 30
0.0
 10
0.4768057929144965
 20
0.0644443300035265
 30
0.0
 10
0.4809722900390625
 20
0.0672222773234049
 30
0.0
 10
0.4848607381184896
 20
0.0701388253106011
 30
0.0
 10
0.4848607381184896
 20
0.0701388253106011
 30
0.0
 10
0.4963887532552083
 20
0.0791665183173286
 30
0.0
 10
0.4963887532552083
 20
0.0791665183173286
 30
0.0
 10
0.5001390245225694
 20
0.0822220908270942
 30
0.0
 10
0.503888448079427
 20
0.0854166878594293
 30
0.0
 10
0.5074996948242188
 20
0.088749885559082
 30
0.0
 10
0.5111109415690104
 20
0.0920830832587348
 30
0.0
 10
0.514722188313802
 20
0.0954167048136393
 30
0.0
 10
0.5180553860134548
 20
0.0988889270358615
 30
0.0
 10
0.5213885837131076
 20
0.1023611492580838
 30
0.0
 10
0.5249998304578993
 20
0.105833371480306
 30
0.0
 10
0.5281940036349826
 20
0.1094446182250977
 30
0.0
 10
0.531388176812066
 20
0.1130558649698893
 30
0.0
 10
0.5347213745117188
 20
0.1168057123819987
 30
0.0
 10
0.537777370876736
 20
0.1205555597941081
 30
0.0
 10
0.5408333672417535
 20
0.1243054072062174
 30
0.0
 10
0.5438885158962673
 20
0.1281942791408963
 30
0.0
 10
0.5468054877387153
 20
0.1320831510755751
 30
0.0
 10
0.5497224595811632
 20
0.1359720230102539
 30
0.0
 10
0.5524995591905382
 20
0.1399999194675021
 30
0.0
 10
0.5551384819878472
 20
0.1441664165920681
 30
0.0
 10
0.5577774047851562
 20
0.1483329137166341
 30
0.0
 10
0.5604163275824653
 20
0.1523608101738824
 30
0.0
 10
0.5629162258572048
 20
0.1565277311537001
 30
0.0
 10
0.5654161241319444
 20
0.1606946521335178
 30
0.0
 10
0.566388448079427
 20
0.1624998516506619
 30
0.0
 10
0.567916022406684
 20
0.1655554241604275
 30
0.0
 10
0.647751702202691
 20
0.0214242935180664
 30
0.0
 10
0.8293126424153645
 20
-0.0306971867879232
 30
0.0
 10
0.9734437730577257
 20
0.0491384930080838
 30
0.0
 10
1.022400750054253
 20
0.0762563281589084
 30
0.0
 10
1.062742445203993
 20
0.1165984471638997
 30
0.0
 10
1.089860704210069
 20
0.1655554241604275
 30
0.0
 10
1.169607374403212
 20
0.0214628643459744
 30
0.0
 10
1.351064893934462
 20
-0.0307001537746853
 30
0.0
 10
1.495157877604167
 20
0.049046516418457
 30
0.0
 10
1.544165717230903
 20
0.0761694378323025
 30
0.0
 10
1.584543016221788
 20
0.1165475845336914
 30
0.0
 10
1.611666361490885
 20
0.1655554241604275
 30
0.0
 10
1.691571553548177
 20
0.0214628643459744
 30
0.0
 10
1.873157077365451
 20
-0.0305717256334093
 30
0.0
 10
2.017250061035156
 20
0.0493330425686306
 30
0.0
 10
2.066108703613281
 20
0.0764275656806098
 30
0.0
 10
2.106377495659722
 20
0.1166963577270508
 30
0.0
 10
2.133472018771701
 20
0.1655554241604275
 30
0.0
 10
2.213218688964844
 20
0.0214628643459744
 30
0.0
 10
2.394676208496094
 20
-0.0307001537746853
 30
0.0
 10
2.538769192165799
 20
0.049046516418457
 30
0.0
 10
2.587777031792534
 20
0.0761694378323025
 30
0.0
 10
2.62815433078342
 20
0.1165475845336914
 30
0.0
 10
2.655277676052517
 20
0.1655554241604275
 30
0.0
 10
2.735182868109809
 20
0.0214628643459744
 30
0.0
 10
2.916768391927083
 20
-0.0305717256334093
 30
0.0
 10
3.060861375596788
 20
0.0493330425686306
 30
0.0
 10
3.109720018174913
 20
0.0764275656806098
 30
0.0
 10
3.149988810221354
 20
0.1166963577270508
 30
0.0
 10
3.177083333333333
 20
0.1655554241604275
 30
0.0
 10
3.256830003526475
 20
0.0214628643459744
 30
0.0
 10
3.438287523057725
 20
-0.0307001537746853
 30
0.0
 10
3.58238050672743
 20
0.049046516418457
 30
0.0
 10
3.631388346354167
 20
0.0761694378323025
 30
0.0
 10
3.671765645345052
 20
0.1165475845336914
 30
0.0
 10
3.698888990614149
 20
0.1655554241604275
 30
0.0
 10
3.778724670410156
 20
0.0214242935180664
 30
0.0
 10
3.960285610622829
 20
-0.0306971867879232
 30
0.0
 10
4.104416741265191
 20
0.0491384930080838
 30
0.0
 10
4.153373718261719
 20
0.0762563281589084
 30
0.0
 10
4.193715413411458
 20
0.1165984471638997
 30
0.0
 10
4.220833672417535
 20
0.1655554241604275
 30
0.0
 10
4.222500271267361
 20
0.1624998516506619
 30
0.0
 10
4.224166870117188
 20
0.1594442791408963
 30
0.0
 10
4.225833468967013
 20
0.1565277311537001
 30
0.0
 10
4.22750006781684
 20
0.1536111831665039
 30
0.0
 10
4.230972290039062
 20
0.1481943130493164
 30
0.0
 10
4.233611212836371
 20
0.1440278159247504
 30
0.0
 10
4.23625013563368
 20
0.1398613188001845
 30
0.0
 10
4.239028082953559
 20
0.1359724468655056
 30
0.0
 10
4.241944207085504
 20
0.1320835749308268
 30
0.0
 10
4.244860331217447
 20
0.128194702996148
 30
0.0
 10
4.247777303059896
 20
0.1243058310614692
 30
0.0
 10
4.250972323947482
 20
0.1205559836493598
 30
0.0
 10
4.25416734483507
 20
0.1168061362372504
 30
0.0
 10
4.257222493489583
 20
0.1130558649698893
 30
0.0
 10
4.260555691189236
 20
0.1094450420803494
 30
0.0
 10
4.263888888888888
 20
0.1058342191908095
 30
0.0
 10
4.267222086588541
 20
0.1022229724460178
 30
0.0
 10
4.270694308810763
 20
0.0988893508911133
 30
0.0
 10
4.274166531032986
 20
0.0955557293362088
 30
0.0
 10
4.277777777777778
 20
0.0919449064466688
 30
0.0
 10
4.28138902452257
 20
0.0887503094143338
 30
0.0
 10
4.285000271267361
 20
0.0855557123819987
 30
0.0
 10
4.288611518012153
 20
0.0822225146823459
 30
0.0
 10
4.292499966091579
 20
0.0791669421725803
 30
0.0
 10
4.292499966091579
 20
0.0791669421725803
 30
0.0
 10
4.304167005750868
 20
0.0701392491658529
 30
0.0
 10
4.304167005750868
 20
0.0701392491658529
 30
0.0
 10
4.308056301540798
 20
0.0673613018459744
 30
0.0
 10
4.312083774142795
 20
0.0644447538587782
 30
0.0
 10
4.316111246744791
 20
0.0618058310614692
 30
0.0
 10
4.316111246744791
 20
0.0618058310614692
 30
0.0
 10
4.328472561306423
 20
0.0540280871921115
 30
0.0
 10
4.328472561306423
 20
0.0540280871921115
 30
0.0
 10
4.332639058430989
 20
0.051528188917372
 30
0.0
 10
4.336944580078125
 20
0.0491668913099501
 30
0.0
 10
4.34125010172526
 20
0.0468060175577799
 30
0.0
 10
4.345555623372396
 20
0.0444451438056098
 30
0.0
 10
4.349861145019531
 20
0.0422228707207574
 30
0.0
 10
4.354305691189236
 20
0.0401391983032227
 30
0.0
 10
4.358750237358941
 20
0.0380555258856879
 30
0.0
 10
4.363194783528646
 20
0.0361113018459744
 30
0.0
 10
4.368194580078125
 20
0.0343056784735786
 30
0.0
 10
4.373194376627604
 20
0.0325000551011827
 30
0.0
 10
4.37736087375217
 20
0.0305558310614692
 30
0.0
 10
4.382083468967013
 20
0.0290278328789605
 30
0.0
 10
4.382083468967013
 20
0.0290278328789605
 30
0.0
 10
4.395972357855903
 20
0.0244446860419379
 30
0.0
 10
4.395972357855903
 20
0.0244446860419379
 30
0.0
 10
4.395972357855903
 20
0.0244446860419379
 30
0.0
 10
4.409861246744791
 20
0.0205558141072591
 30
0.0
 10
4.409861246744791
 20
0.0205558141072591
 30
0.0
 10
4.409861246744791
 20
0.0205558141072591
 30
0.0
 10
4.42375013563368
 20
0.017361217074924
 30
0.0
 10
4.42375013563368
 20
0.017361217074924
 30
0.0
 10
4.42375013563368
 20
0.017361217074924
 30
0.0
 10
4.43763902452257
 20
0.014722294277615
 30
0.0
 10
4.43763902452257
 20
0.014722294277615
 30
0.0
 10
4.43763902452257
 20
0.014722294277615
 30
0.0
 10
4.451527913411458
 20
0.0130556954277886
 30
0.0
 10
4.451527913411458
 20
0.0130556954277886
 30
0.0
 10
4.456388685438368
 20
0.0130556954277886
 30
0.0
 10
4.46138932969835
 20
0.0122223960028754
 30
0.0
 10
4.466111077202691
 20
0.0118057462904188
 30
0.0
 10
4.466111077202691
 20
0.0118057462904188
 30
0.0
 10
4.480833265516493
 20
0.0118057462904188
 30
0.0
 10
4.480833265516493
 20
0.0118057462904188
 30
0.0
 10
4.480833265516493
 20
0.0118057462904188
 30
0.0
 10
4.495555453830295
 20
0.0118057462904188
 30
0.0
 10
4.495555453830295
 20
0.0118057462904188
 30
0.0
 10
4.500278049045138
 20
0.0118057462904188
 30
0.0
 10
4.505277845594618
 20
0.0118057462904188
 30
0.0
 10
4.509444342719184
 20
0.0130556954277886
 30
0.0
 10
4.51361083984375
 20
0.0143056445651584
 30
0.0
 10
4.519166734483506
 20
0.014166620042589
 30
0.0
 10
4.523333231608072
 20
0.014722294277615
 30
0.0
 10
4.523333231608072
 20
0.014722294277615
 30
0.0
 10
4.537222120496962
 20
0.017361217074924
 30
0.0
 10
4.537222120496962
 20
0.017361217074924
 30
0.0
 10
4.537222120496962
 20
0.017361217074924
 30
0.0
 10
4.55111100938585
 20
0.0205558141072591
 30
0.0
 10
4.55111100938585
 20
0.0205558141072591
 30
0.0
 10
4.55111100938585
 20
0.0205558141072591
 30
0.0
 10
4.564999898274739
 20
0.0244446860419379
 30
0.0
 10
4.564999898274739
 20
0.0244446860419379
 30
0.0
 10
4.564999898274739
 20
0.0244446860419379
 30
0.0
 10
4.578888787163629
 20
0.0290278328789605
 30
0.0
 10
4.578888787163629
 20
0.0290278328789605
 30
0.0
 10
4.583472357855903
 20
0.0306944317287869
 30
0.0
 10
4.588055080837673
 20
0.0325000551011827
 30
0.0
 10
4.592777676052517
 20
0.0343056784735786
 30
0.0
 10
4.592777676052517
 20
0.0343056784735786
 30
0.0
 10
4.606666564941406
 20
0.0401391983032227
 30
0.0
 10
4.606666564941406
 20
0.0401391983032227
 30
0.0
 10
4.610972086588541
 20
0.0422224468655056
 30
0.0
 10
4.615416632758246
 20
0.0444447199503581
 30
0.0
 10
4.619722154405381
 20
0.0468060175577799
 30
0.0
 10
4.624027676052517
 20
0.0491673151652018
 30
0.0
 10
4.628333197699653
 20
0.051528188917372
 30
0.0
 10
4.632360670301649
 20
0.0540280871921115
 30
0.0
 10
4.636388142903646
 20
0.0565279854668511
 30
0.0
 10
4.640693664550781
 20
0.0591669082641602
 30
0.0
 10
4.64486100938585
 20
0.0618058310614692
 30
0.0
 10
4.64902835422092
 20
0.0644447538587782
 30
0.0
 10
4.652916802300347
 20
0.0673613018459744
 30
0.0
 10
4.656805250379774
 20
0.0701392491658529
 30
0.0
 10
4.656805250379774
 20
0.0701392491658529
 30
0.0
 10
4.668333265516493
 20
0.0791669421725803
 30
0.0
 10
4.668333265516493
 20
0.0791669421725803
 30
0.0
 10
4.672083536783854
 20
0.0822225146823459
 30
0.0
 10
4.675832960340712
 20
0.085417111714681
 30
0.0
 10
4.679444207085504
 20
0.0887503094143338
 30
0.0
 10
4.683055453830295
 20
0.0920835071139865
 30
0.0
 10
4.686666700575087
 20
0.0954171286688911
 30
0.0
 10
4.689999898274739
 20
0.0988893508911133
 30
0.0
 10
4.693333095974392
 20
0.1023615731133355
 30
0.0
 10
4.696944342719184
 20
0.1058337953355577
 30
0.0
 10
4.700138515896267
 20
0.1094450420803494
 30
0.0
 10
4.70333268907335
 20
0.1130562888251411
 30
0.0
 10
4.706665886773004
 20
0.1168061362372504
 30
0.0
 10
4.709721883138021
 20
0.1205559836493598
 30
0.0
 10
4.709721883138021
 20
0.1205559836493598
 30
0.0
 10
4.71875
 20
0.1320835749308268
 30
0.0
 10
4.71875
 20
0.1320835749308268
 30
0.0
 10
4.721666971842447
 20
0.1359724468655056
 30
0.0
 10
4.724444071451822
 20
0.1400003433227539
 30
0.0
 10
4.727082994249131
 20
0.1440278159247504
 30
0.0
 10
4.729721917046441
 20
0.148055288526747
 30
0.0
 10
4.73236083984375
 20
0.1522222095065646
 30
0.0
 10
4.734860738118489
 20
0.1565277311537001
 30
0.0
 10
4.737360636393229
 20
0.1608332528008355
 30
0.0
 10
4.739721510145399
 20
0.1648611492580838
 30
0.0
 10
4.742083231608072
 20
0.1691666709052192
 30
0.0
 10
4.744444953070746
 20
0.1734721925523546
 30
0.0
 10
4.746666802300347
 20
0.1779167387220595
 30
0.0
 10
4.748749627007379
 20
0.1822222603691949
 30
0.0
 10
4.75083245171441
 20
0.1865277820163303
 30
0.0
 10
4.752777099609375
 20
0.1911113527086046
 30
0.0
 10
4.754582722981771
 20
0.1961111492580838
 30
0.0
 10
4.756388346354166
 20
0.2011109458075629
 30
0.0
 10
4.758332994249131
 20
0.2052778667873806
 30
0.0
 10
4.759860568576388
 20
0.2100000381469727
 30
0.0
 10
4.761388142903646
 20
0.2147222095065646
 30
0.0
 10
4.763054741753472
 20
0.2191667556762695
 30
0.0
 10
4.764444139268663
 20
0.2238889270358615
 30
0.0
 10
4.765833536783854
 20
0.2286110983954535
 30
0.0
 10
4.767222086588541
 20
0.2331946690877278
 30
0.0
 10
4.768333435058594
 20
0.2377778159247504
 30
0.0
 10
4.769444783528646
 20
0.242360962761773
 30
0.0
 10
4.770555284288194
 20
0.2473611831665039
 30
0.0
 10
4.771527608235677
 20
0.2516667048136393
 30
0.0
 10
4.77249993218316
 20
0.2559722264607747
 30
0.0
 10
4.773333231608072
 20
0.2612500720553928
 30
0.0
 10
4.774166531032986
 20
0.2655555937025282
 30
0.0
 10
4.774999830457899
 20
0.2698611153496636
 30
0.0
 10
4.775416904025607
 20
0.2752779854668511
 30
0.0
 10
4.775833129882812
 20
0.2794444825914171
 30
0.0
 10
4.776249355740017
 20
0.283610979715983
 30
0.0
 10
4.776666429307725
 20
0.28916687435574
 30
0.0
 10
4.777083502875434
 20
0.293333371480306
 30
0.0
 10
4.777500576443142
 20
0.2974998686048719
 30
0.0
 10
4.777083502875434
 20
0.3031943639119466
 30
0.0
 10
4.777083502875434
 20
0.308055559794108
 30
0.0
 10
4.777083502875434
 20
0.3129167556762695
 30
0.0
 10
4.777083502875434
 20
0.317777951558431
 30
0.0
 10
4.777083502875434
 20
0.3226387235853407
 30
0.0
 10
4.777083502875434
 20
0.3274994956122504
 30
0.0
 10
4.777083502875434
 20
0.3324997160169813
 30
0.0
 10
4.775833129882812
 20
0.3372218873765733
 30
0.0
 10
4.774582756890191
 20
0.3419440587361653
 30
0.0
 10
4.77472178141276
 20
0.3469442791408963
 30
0.0
 10
4.774166531032986
 20
0.351805051167806
 30
0.0
 10
4.773611280653212
 20
0.3566658231947157
 30
0.0
 10
4.77249993218316
 20
0.3613884184095594
 30
0.0
 10
4.771527608235677
 20
0.3656939400566949
 30
0.0
 10
4.770555284288194
 20
0.3699994617038303
 30
0.0
 10
4.769443935818142
 20
0.3752773072984483
 30
0.0
 10
4.768333435058594
 20
0.3795828289455838
 30
0.0
 10
4.767222934299045
 20
0.3838883505927191
 30
0.0
 10
4.765833536783854
 20
0.3890271716647677
 30
0.0
 10
4.764444139268663
 20
0.3934717178344727
 30
0.0
 10
4.763054741753472
 20
0.3979162640041775
 30
0.0
 10
4.761527167426215
 20
0.402777459886339
 30
0.0
 10
4.759860568576388
 20
0.4073606067233615
 30
0.0
 10
4.758193969726562
 20
0.4119437535603841
 30
0.0
 10
4.756388346354166
 20
0.4165273242526584
 30
0.0
 10
4.754582722981771
 20
0.4212494956122504
 30
0.0
 10
4.752777099609375
 20
0.4259716669718424
 30
0.0
 10
4.75083245171441
 20
0.4302771886189778
 30
0.0
 10
4.748749627007379
 20
0.4351383845011393
 30
0.0
 10
4.746666802300347
 20
0.4399995803833008
 30
0.0
 10
4.744444105360243
 20
0.4438884523179796
 30
0.0
 10
4.742083231608072
 20
0.448193973965115
 30
0.0
 10
4.739722357855903
 20
0.4524994956122504
 30
0.0
 10
4.737360636393229
 20
0.4568050172593858
 30
0.0
 10
4.734860738118489
 20
0.4609719382392035
 30
0.0
 10
4.73236083984375
 20
0.4651388592190213
 30
0.0
 10
4.729721917046441
 20
0.4691663318210177
 30
0.0
 10
4.727082994249131
 20
0.4733332528008355
 30
0.0
 10
4.724444071451822
 20
0.4775001737806532
 30
0.0
 10
4.721666124131944
 20
0.4813886218600802
 30
0.0
 10
4.71875
 20
0.4852774937947591
 30
0.0
 10
4.71875
 20
0.4852774937947591
 30
0.0
 10
4.709721883138021
 20
0.4969441095987955
 30
0.0
 10
4.709721883138021
 20
0.4969441095987955
 30
0.0
 10
4.706666734483506
 20
0.5006939570109049
 30
0.0
 10
4.70347171359592
 20
0.5044442282782661
 30
0.0
 10
4.700138515896267
 20
0.5080550511678059
 30
0.0
 10
4.696805318196614
 20
0.5116658740573459
 30
0.0
 10
4.693472120496962
 20
0.5152771208021376
 30
0.0
 10
4.689999898274739
 20
0.5187493430243598
 30
0.0
 10
4.686527676052517
 20
0.522221565246582
 30
0.0
 10
4.683055453830295
 20
0.5256937874688042
 30
0.0
 10
4.679444207085504
 20
0.5288883845011393
 30
0.0
 10
4.675832960340712
 20
0.5320829815334743
 30
0.0
 10
4.67208268907335
 20
0.5354161792331271
 30
0.0
 10
4.668333265516493
 20
0.5384717517428927
 30
0.0
 10
4.668333265516493
 20
0.5384717517428927
 30
0.0
 10
4.66111077202691
 20
0.5441662470499674
 30
0.0
 10
4.66111077202691
 20
0.5441662470499674
 30
0.0
 10
4.791511535644531
 20
0.6446284188164605
 30
0.0
 10
4.815781487358941
 20
0.8317795859442816
 30
0.0
 10
4.715319315592447
 20
0.9621803495619031
 30
0.0
 10
4.699658711751302
 20
0.9825075997246636
 30
0.0
 10
4.68143802218967
 20
1.000727865431044
 30
0.0
 10
4.66111077202691
 20
1.01638846927219
 30
0.0
 10
4.791511535644531
 20
1.116976102193197
 30
0.0
 10
4.815679762098524
 20
1.304229418436686
 30
0.0
 10
4.715091281467013
 20
1.434629758199056
 30
0.0
 10
4.69948493109809
 20
1.454862064785427
 30
0.0
 10
4.681343078613281
 20
1.473004129197862
 30
0.0
 10
4.66111077202691
 20
1.488610691494412
 30
0.0
 10
4.791511535644531
 20
1.589198536343045
 30
0.0
 10
4.815679762098524
 20
1.776451640658908
 30
0.0
 10
4.715091281467013
 20
1.906852192348904
 30
0.0
 10
4.69948493109809
 20
1.92708428700765
 30
0.0
 10
4.681343078613281
 20
1.945226351420084
 30
0.0
 10
4.66111077202691
 20
1.960832913716634
 30
0.0
 10
4.791511535644531
 20
2.061420758565267
 30
0.0
 10
4.815679762098524
 20
2.248673862881131
 30
0.0
 10
4.715091281467013
 20
2.379074414571126
 30
0.0
 10
4.69948493109809
 20
2.399306509229872
 30
0.0
 10
4.681343078613281
 20
2.417448573642307
 30
0.0
 10
4.66111077202691
 20
2.433055135938856
 30
0.0
 10
4.791511535644531
 20
2.533642980787489
 30
0.0
 10
4.815679762098524
 20
2.720896085103353
 30
0.0
 10
4.715091281467013
 20
2.851296636793348
 30
0.0
 10
4.69948493109809
 20
2.871528731452094
 30
0.0
 10
4.681343078613281
 20
2.889670795864529
 30
0.0
 10
4.66111077202691
 20
2.905277358161078
 30
0.0
 10
4.734157138400607
 20
2.96124447716607
 30
0.0
 10
4.77722422281901
 20
3.04784001244439
 30
0.0
 10
4.777777777777778
 20
3.139860894944932
 30
0.0
  0
SPLINE
  5
46
330
1F
100
AcDbEntity
  8
Layer 1
 62
   179
420
  2301728
370
    35
100
AcDbSpline
210
0.0
220
0.0
230
1.0
 70
     8
 71
     3
 72
    17
 73
    13
 74
     0
 42
0.0000000001
 43
0.0000000001
 12
1.0
 22
0.0
 32
0.0
 13
1.0
 23
0.0
 33
0.0
 40
0.0
 40
0.0
 40
0.0
 40
0.0
 40
1.0
 40
1.0
 40
1.0
 40
2.0
 40
2.0
 40
2.0
 40
3.0
 40
3.0
 40
3.0
 40
4.0
 40
4.0
 40
4.0
 40
4.0
 10
2.104027642144097
 20
1.643610954284668
 30
0.0
 10
2.044584486219618
 20
1.643989668952094
 30
0.0
 10
1.996489630805121
 20
1.692084524366591
 30
0.0
 10
1.996110704210069
 20
1.75152768029107
 30
0.0
 10
1.996110704210069
 20
1.75152768029107
 30
0.0
 10
1.996110704210069
 20
2.307083235846625
 30
0.0
 10
1.996110704210069
 20
2.307083235846625
 30
0.0
 10
1.996489630805121
 20
2.366526391771104
 30
0.0
 10
2.044584486219618
 20
2.414621247185601
 30
0.0
 10
2.104027642144097
 20
2.414999961853027
 30
0.0
 10
2.104027642144097
 20
2.414999961853027
 30
0.0
 10
2.293333265516493
 20
2.414999961853027
 30
0.0
 10
2.293333265516493
 20
2.414999961853027
 30
0.0
  0
SPLINE
  5
47
330
1F
100
AcDbEntity
  8
Layer 1
 62
   179
420
  2301728
370
    35
100
AcDbSpline
210
0.0
220
0.0
230
1.0
 70
    11
 71
     3
 72
    62
 73
    58
 74
     0
 42
0.0000000001
 43
0.0000000001
 12
1.0
 22
0.0
 32
0.0
 13
1.0
 23
0.0
 33
0.0
 40
0.0
 40
0.0
 40
0.0
 40
0.0
 40
1.0
 40
1.0
 40
1.0
 40
2.0
 40
2.0
 40
2.0
 40
3.0
 40
3.0
 40
3.0
 40
4.0
 40
4.0
 40
4.0
 40
5.0
 40
5.0
 40
5.0
 40
6.0
 40
6.0
 40
6.0
 40
7.0
 40
7.0
 40
7.0
 40
8.0
 40
8.0
 40
8.0
 40
9.0
 40
9.0
 40
9.0
 40
10.0
 40
10.0
 40
10.0
 40
11.0
 40
11.0
 40
11.0
 40
12.0
 40
12.0
 40
12.0
 40
13.0
 40
13.0
 40
13.0
 40
14.0
 40
14.0
 40
14.0
 40
15.0
 40
15.0
 40
15.0
 40
16.0
 40
16.0
 40
16.0
 40
17.0
 40
17.0
 40
17.0
 40
18.0
 40
18.0
 40
18.0
 40
19.0
 40
19.0
 40
19.0
 40
19.0
 10
0.893888685438368
 20
2.573055373297797
 30
0.0
 10
0.8342497083875867
 20
2.573055373297797
 30
0.0
 10
0.7859022352430555
 20
2.621402422587077
 30
0.0
 10
0.7859022352430555
 20
2.681041399637858
 30
0.0
 10
0.7859022352430555
 20
2.740680588616265
 30
0.0
 10
0.8342497083875867
 20
2.789027637905545
 30
0.0
 10
0.893888685438368
 20
2.789027637905545
 30
0.0
 10
0.893888685438368
 20
2.789027637905545
 30
0.0
 10
1.063610500759549
 20
2.789027637905545
 30
0.0
 10
1.063610500759549
 20
2.789027637905545
 30
0.0
 10
1.063610500759549
 20
2.789027637905545
 30
0.0
 10
1.063610500759549
 20
2.850694338480631
 30
0.0
 10
1.063610500759549
 20
2.850694338480631
 30
0.0
 10
1.063610500759549
 20
2.850694338480631
 30
0.0
 10
0.893888685438368
 20
2.850694338480631
 30
0.0
 10
0.893888685438368
 20
2.850694338480631
 30
0.0
 10
0.8344455295138888
 20
2.851073053148057
 30
0.0
 10
0.7863506740993923
 20
2.899167908562554
 30
0.0
 10
0.7859717475043402
 20
2.958611064487033
 30
0.0
 10
0.7859717475043402
 20
2.958611064487033
 30
0.0
 10
0.7859717475043402
 20
3.236388842264811
 30
0.0
 10
0.7859717475043402
 20
3.236388842264811
 30
0.0
 10
0.7863506740993923
 20
3.29583199818929
 30
0.0
 10
0.8344455295138888
 20
3.343926747639974
 30
0.0
 10
0.893888685438368
 20
3.3443054623074
 30
0.0
 10
0.893888685438368
 20
3.3443054623074
 30
0.0
 10
1.171666463216146
 20
3.3443054623074
 30
0.0
 10
1.171666463216146
 20
3.3443054623074
 30
0.0
 10
1.231305440266927
 20
3.3443054623074
 30
0.0
 10
1.279652913411458
 20
3.29595841301812
 30
0.0
 10
1.279652913411458
 20
3.236319330003526
 30
0.0
 10
1.279652913411458
 20
3.176680352952745
 30
0.0
 10
1.231305440266927
 20
3.128333303663466
 30
0.0
 10
1.171666463216146
 20
3.128333303663466
 30
0.0
 10
1.171666463216146
 20
3.128333303663466
 30
0.0
 10
1.001805623372396
 20
3.128333303663466
 30
0.0
 10
1.001805623372396
 20
3.128333303663466
 30
0.0
 10
1.001805623372396
 20
3.128333303663466
 30
0.0
 10
1.001805623372396
 20
3.066666603088379
 30
0.0
 10
1.001805623372396
 20
3.066666603088379
 30
0.0
 10
1.001805623372396
 20
3.066666603088379
 30
0.0
 10
1.171527438693576
 20
3.066666603088379
 30
0.0
 10
1.171527438693576
 20
3.066666603088379
 30
0.0
 10
1.230970594618056
 20
3.066287888420952
 30
0.0
 10
1.279065450032552
 20
3.018193033006456
 30
0.0
 10
1.279444376627604
 20
2.958749877081977
 30
0.0
 10
1.279444376627604
 20
2.958749877081977
 30
0.0
 10
1.279444376627604
 20
2.680972099304199
 30
0.0
 10
1.279444376627604
 20
2.680972099304199
 30
0.0
 10
1.279065450032552
 20
2.62152894337972
 30
0.0
 10
1.230970594618056
 20
2.573434087965223
 30
0.0
 10
1.171527438693576
 20
2.573055373297797
 30
0.0
 10
1.171527438693576
 20
2.573055373297797
 30
0.0
 10
0.8937496609157985
 20
2.573055373297797
 30
0.0
 10
0.8937496609157985
 20
2.573055373297797
 30
0.0
 10
0.8937496609157985
 20
2.573055373297797
 30
0.0
 10
0.893888685438368
 20
2.573055373297797
 30
0.0
 10
0.893888685438368
 20
2.573055373297797
 30
0.0
  0
SPLINE
  5
48
330
1F
100
AcDbEntity
  8
Layer 1
 62
   179
420
  2301728
370
    35
100
AcDbSpline
210
0.0
220
0.0
230
1.0
 70
    11
 71
     3
 72
    32
 73
    28
 74
     0
 42
0.0000000001
 43
0.0000000001
 12
1.0
 22
0.0
 32
0.0
 13
1.0
 23
0.0
 33
0.0
 40
0.0
 40
0.0
 40
0.0
 40
0.0
 40
1.0
 40
1.0
 40
1.0
 40
2.0
 40
2.0
 40
2.0
 40
3.0
 40
3.0
 40
3.0
 40
4.0
 40
4.0
 40
4.0
 40
5.0
 40
5.0
 40
5.0
 40
6.0
 40
6.0
 40
6.0
 40
7.0
 40
7.0
 40
7.0
 40
8.0
 40
8.0
 40
8.0
 40
9.0
 40
9.0
 40
9.0
 40
9.0
 10
1.869583129882812
 20
3.311944219801161
 30
0.0
 10
1.890234205457899
 20
3.292050361633301
 30
0.0
 10
1.901744418674045
 20
3.264505704243978
 30
0.0
 10
1.901388380262587
 20
3.235833168029785
 30
0.0
 10
1.901388380262587
 20
3.235833168029785
 30
0.0
 10
1.901388380262587
 20
2.680277612474229
 30
0.0
 10
1.901388380262587
 20
2.680277612474229
 30
0.0
 10
1.901009453667535
 20
2.62083445654975
 30
0.0
 10
1.852914598253038
 20
2.572739601135254
 30
0.0
 10
1.793471442328559
 20
2.572360886467827
 30
0.0
 10
1.793471442328559
 20
2.572360886467827
 30
0.0
 10
1.515693664550781
 20
2.572360886467827
 30
0.0
 10
1.515693664550781
 20
2.572360886467827
 30
0.0
 10
1.456250508626302
 20
2.572739601135254
 30
0.0
 10
1.408155653211806
 20
2.62083445654975
 30
0.0
 10
1.407776726616753
 20
2.680277612474229
 30
0.0
 10
1.407776726616753
 20
2.680277612474229
 30
0.0
 10
1.407776726616753
 20
3.235833168029785
 30
0.0
 10
1.407776726616753
 20
3.235833168029785
 30
0.0
 10
1.408155653211806
 20
3.295276323954264
 30
0.0
 10
1.456250508626302
 20
3.343371073404948
 30
0.0
 10
1.515693664550781
 20
3.343749788072374
 30
0.0
 10
1.515693664550781
 20
3.343749788072374
 30
0.0
 10
1.793471442328559
 20
3.343749788072374
 30
0.0
 10
1.793471442328559
 20
3.343749788072374
 30
0.0
 10
1.822144402398003
 20
3.344106250339084
 30
0.0
 10
1.849689059787326
 20
3.332595719231499
 30
0.0
 10
1.869583129882812
 20
3.311944219801161
 30
0.0
  0
SPLINE
  5
49
330
1F
100
AcDbEntity
  8
Layer 1
 62
   179
420
  2301728
370
    35
100
AcDbSpline
210
0.0
220
0.0
230
1.0
 70
    11
 71
     3
 72
    56
 73
    52
 74
     0
 42
0.0000000001
 43
0.0000000001
 12
1.0
 22
0.0
 32
0.0
 13
1.0
 23
0.0
 33
0.0
 40
0.0
 40
0.0
 40
0.0
 40
0.0
 40
1.0
 40
1.0
 40
1.0
 40
2.0
 40
2.0
 40
2.0
 40
3.0
 40
3.0
 40
3.0
 40
4.0
 40
4.0
 40
4.0
 40
5.0
 40
5.0
 40
5.0
 40
6.0
 40
6.0
 40
6.0
 40
7.0
 40
7.0
 40
7.0
 40
8.0
 40
8.0
 40
8.0
 40
9.0
 40
9.0
 40
9.0
 40
10.0
 40
10.0
 40
10.0
 40
11.0
 40
11.0
 40
11.0
 40
12.0
 40
12.0
 40
12.0
 40
13.0
 40
13.0
 40
13.0
 40
14.0
 40
14.0
 40
14.0
 40
15.0
 40
15.0
 40
15.0
 40
16.0
 40
16.0
 40
16.0
 40
17.0
 40
17.0
 40
17.0
 40
17.0
 10
2.061388651529948
 20
2.604305373297797
 30
0.0
 10
2.040737575954861
 20
2.624199231465657
 30
0.0
 10
2.029227362738715
 20
2.65174388885498
 30
0.0
 10
2.029583401150174
 20
2.680416425069173
 30
0.0
 10
2.029583401150174
 20
2.680416425069173
 30
0.0
 10
2.029583401150174
 20
3.235971980624729
 30
0.0
 10
2.029583401150174
 20
3.235971980624729
 30
0.0
 10
2.029962327745225
 20
3.295415136549208
 30
0.0
 10
2.078057183159722
 20
3.343509885999891
 30
0.0
 10
2.137500339084201
 20
3.343888600667317
 30
0.0
 10
2.137500339084201
 20
3.343888600667317
 30
0.0
 10
2.415278116861979
 20
3.343888600667317
 30
0.0
 10
2.415278116861979
 20
3.343888600667317
 30
0.0
 10
2.47491709391276
 20
3.343888600667317
 30
0.0
 10
2.523264567057292
 20
3.295541551378038
 30
0.0
 10
2.523264567057292
 20
3.235902468363444
 30
0.0
 10
2.523264567057292
 20
3.176263491312663
 30
0.0
 10
2.47491709391276
 20
3.127916442023383
 30
0.0
 10
2.415278116861979
 20
3.127916442023383
 30
0.0
 10
2.415278116861979
 20
3.127916442023383
 30
0.0
 10
2.245555453830295
 20
3.127916442023383
 30
0.0
 10
2.245555453830295
 20
3.127916442023383
 30
0.0
 10
2.245555453830295
 20
3.127916442023383
 30
0.0
 10
2.245555453830295
 20
3.061388757493761
 30
0.0
 10
2.245555453830295
 20
3.061388757493761
 30
0.0
 10
2.255526224772135
 20
3.064567459954155
 30
0.0
 10
2.265923394097222
 20
3.066206508212619
 30
0.0
 10
2.276388380262587
 20
3.066249953375922
 30
0.0
 10
2.276388380262587
 20
3.066249953375922
 30
0.0
 10
2.415277269151475
 20
3.066249953375922
 30
0.0
 10
2.415277269151475
 20
3.066249953375922
 30
0.0
 10
2.474916246202257
 20
3.066249953375922
 30
0.0
 10
2.523263719346788
 20
3.017902904086643
 30
0.0
 10
2.523263719346788
 20
2.958263927035861
 30
0.0
 10
2.523263719346788
 20
2.898624738057454
 30
0.0
 10
2.474916246202257
 20
2.850277688768175
 30
0.0
 10
2.415277269151475
 20
2.850277688768175
 30
0.0
 10
2.415277269151475
 20
2.850277688768175
 30
0.0
 10
2.276388380262587
 20
2.850277688768175
 30
0.0
 10
2.276388380262587
 20
2.850277688768175
 30
0.0
 10
2.265922546386719
 20
2.850314564175076
 30
0.0
 10
2.255524529351128
 20
2.851953824361165
 30
0.0
 10
2.245555453830295
 20
2.855138884650336
 30
0.0
 10
2.245555453830295
 20
2.855138884650336
 30
0.0
 10
2.245555453830295
 20
2.680694474114312
 30
0.0
 10
2.245555453830295
 20
2.680694474114312
 30
0.0
 10
2.245752970377604
 20
2.621170785692003
 30
0.0
 10
2.197660658094618
 20
2.572756767272949
 30
0.0
 10
2.138136969672309
 20
2.572559038798014
 30
0.0
 10
2.109340243869358
 20
2.572463247511122
 30
0.0
 10
2.081703186035156
 20
2.583895259433322
 30
0.0
 10
2.061388651529948
 20
2.604305373297797
 30
0.0
  0
SPLINE
  5
4A
330
1F
100
AcDbEntity
  8
Layer 1
 62
   179
420
  2301728
370
    35
100
AcDbSpline
210
0.0
220
0.0
230
1.0
 70
    11
 71
     3
 72
    41
 73
    37
 74
     0
 42
0.0000000001
 43
0.0000000001
 12
1.0
 22
0.0
 32
0.0
 13
1.0
 23
0.0
 33
0.0
 40
0.0
 40
0.0
 40
0.0
 40
0.0
 40
1.0
 40
1.0
 40
1.0
 40
2.0
 40
2.0
 40
2.0
 40
3.0
 40
3.0
 40
3.0
 40
4.0
 40
4.0
 40
4.0
 40
5.0
 40
5.0
 40
5.0
 40
6.0
 40
6.0
 40
6.0
 40
7.0
 40
7.0
 40
7.0
 40
8.0
 40
8.0
 40
8.0
 40
9.0
 40
9.0
 40
9.0
 40
10.0
 40
10.0
 40
10.0
 40
11.0
 40
11.0
 40
11.0
 40
12.0
 40
12.0
 40
12.0
 40
12.0
 10
2.759444342719184
 20
3.12777762942844
 30
0.0
 10
2.699805365668403
 20
3.12777762942844
 30
0.0
 10
2.651457892523871
 20
3.176124678717719
 30
0.0
 10
2.651457892523871
 20
3.2357636557685
 30
0.0
 10
2.651457892523871
 20
3.295402844746907
 30
0.0
 10
2.699805365668403
 20
3.343749894036187
 30
0.0
 10
2.759444342719184
 20
3.343749894036187
 30
0.0
 10
2.759444342719184
 20
3.343749894036187
 30
0.0
 10
3.037222120496962
 20
3.343749894036187
 30
0.0
 10
3.037222120496962
 20
3.343749894036187
 30
0.0
 10
3.096861097547743
 20
3.343749894036187
 30
0.0
 10
3.145208570692274
 20
3.295402844746907
 30
0.0
 10
3.145208570692274
 20
3.2357636557685
 30
0.0
 10
3.145208570692274
 20
3.176124678717719
 30
0.0
 10
3.096861097547743
 20
3.12777762942844
 30
0.0
 10
3.037222120496962
 20
3.12777762942844
 30
0.0
 10
3.037222120496962
 20
3.12777762942844
 30
0.0
 10
3.00638919406467
 20
3.12777762942844
 30
0.0
 10
3.00638919406467
 20
3.12777762942844
 30
0.0
 10
3.00638919406467
 20
3.12777762942844
 30
0.0
 10
3.00638919406467
 20
2.680416636996799
 30
0.0
 10
3.00638919406467
 20
2.680416636996799
 30
0.0
 10
3.00638919406467
 20
2.620777659946018
 30
0.0
 10
2.958042568630642
 20
2.572430610656738
 30
0.0
 10
2.898403591579861
 20
2.572430610656738
 30
0.0
 10
2.838763766818576
 20
2.572430610656738
 30
0.0
 10
2.790417141384549
 20
2.620777659946018
 30
0.0
 10
2.790417141384549
 20
2.680416636996799
 30
0.0
 10
2.790417141384549
 20
2.680416636996799
 30
0.0
 10
2.790417141384549
 20
3.12777762942844
 30
0.0
 10
2.790417141384549
 20
3.12777762942844
 30
0.0
 10
2.790417141384549
 20
3.12777762942844
 30
0.0
 10
2.759584214952257
 20
3.12777762942844
 30
0.0
 10
2.759584214952257
 20
3.12777762942844
 30
0.0
 10
2.759584214952257
 20
3.12777762942844
 30
0.0
 10
2.759444342719184
 20
3.12777762942844
 30
0.0
 10
2.759444342719184
 20
3.12777762942844
 30
0.0
  0
SPLINE
  5
4B
330
1F
100
AcDbEntity
  8
Layer 1
 62
   179
420
  2301728
370
    35
100
AcDbSpline
210
0.0
220
0.0
230
1.0
 70
    11
 71
     3
 72
    56
 73
    52
 74
     0
 42
0.0000000001
 43
0.0000000001
 12
1.0
 22
0.0
 32
0.0
 13
1.0
 23
0.0
 33
0.0
 40
0.0
 40
0.0
 40
0.0
 40
0.0
 40
1.0
 40
1.0
 40
1.0
 40
2.0
 40
2.0
 40
2.0
 40
3.0
 40
3.0
 40
3.0
 40
4.0
 40
4.0
 40
4.0
 40
5.0
 40
5.0
 40
5.0
 40
6.0
 40
6.0
 40
6.0
 40
7.0
 40
7.0
 40
7.0
 40
8.0
 40
8.0
 40
8.0
 40
9.0
 40
9.0
 40
9.0
 40
10.0
 40
10.0
 40
10.0
 40
11.0
 40
11.0
 40
11.0
 40
12.0
 40
12.0
 40
12.0
 40
13.0
 40
13.0
 40
13.0
 40
14.0
 40
14.0
 40
14.0
 40
15.0
 40
15.0
 40
15.0
 40
16.0
 40
16.0
 40
16.0
 40
17.0
 40
17.0
 40
17.0
 40
17.0
 10
0.817777845594618
 20
1.637221972147624
 30
0.0
 10
0.7971267700195312
 20
1.657115830315484
 30
0.0
 10
0.7856165568033854
 20
1.684660487704807
 30
0.0
 10
0.7859725952148438
 20
1.713333023918999
 30
0.0
 10
0.7859725952148438
 20
1.713333023918999
 30
0.0
 10
0.7859725952148438
 20
2.268888579474555
 30
0.0
 10
0.7859725952148438
 20
2.268888579474555
 30
0.0
 10
0.7863515218098958
 20
2.328331735399034
 30
0.0
 10
0.8344463772243923
 20
2.37642659081353
 30
0.0
 10
0.8938895331488714
 20
2.376805305480957
 30
0.0
 10
0.8938895331488714
 20
2.376805305480957
 30
0.0
 10
1.171667310926649
 20
2.376805305480957
 30
0.0
 10
1.171667310926649
 20
2.376805305480957
 30
0.0
 10
1.231306287977431
 20
2.376805305480957
 30
0.0
 10
1.279653761121962
 20
2.328458256191678
 30
0.0
 10
1.279653761121962
 20
2.268819279140896
 30
0.0
 10
1.279653761121962
 20
2.209180090162489
 30
0.0
 10
1.231306287977431
 20
2.160833040873209
 30
0.0
 10
1.171667310926649
 20
2.160833040873209
 30
0.0
 10
1.171667310926649
 20
2.160833040873209
 30
0.0
 10
1.001805623372396
 20
2.160833040873209
 30
0.0
 10
1.001805623372396
 20
2.160833040873209
 30
0.0
 10
1.001805623372396
 20
2.160833040873209
 30
0.0
 10
1.001805623372396
 20
2.094305356343587
 30
0.0
 10
1.001805623372396
 20
2.094305356343587
 30
0.0
 10
1.011776394314236
 20
2.097484058803982
 30
0.0
 10
1.022173563639323
 20
2.099123107062446
 30
0.0
 10
1.032638549804688
 20
2.099166552225749
 30
0.0
 10
1.032638549804688
 20
2.099166552225749
 30
0.0
 10
1.171527438693576
 20
2.099166552225749
 30
0.0
 10
1.171527438693576
 20
2.099166552225749
 30
0.0
 10
1.231166415744358
 20
2.099166552225749
 30
0.0
 10
1.279513888888889
 20
2.050819502936469
 30
0.0
 10
1.279513888888889
 20
1.991180525885688
 30
0.0
 10
1.279513888888889
 20
1.931541336907281
 30
0.0
 10
1.231166415744358
 20
1.883194287618001
 30
0.0
 10
1.171527438693576
 20
1.883194287618001
 30
0.0
 10
1.171527438693576
 20
1.883194287618001
 30
0.0
 10
1.032638549804688
 20
1.883194287618001
 30
0.0
 10
1.032638549804688
 20
1.883194287618001
 30
0.0
 10
1.022172715928819
 20
1.883231163024902
 30
0.0
 10
1.011774698893229
 20
1.884870423210992
 30
0.0
 10
1.001805623372396
 20
1.888055483500163
 30
0.0
 10
1.001805623372396
 20
1.888055483500163
 30
0.0
 10
1.001805623372396
 20
1.713611072964138
 30
0.0
 10
1.001805623372396
 20
1.713611072964138
 30
0.0
 10
1.001925998263889
 20
1.654087172614203
 30
0.0
 10
0.9537701076931423
 20
1.605735672844781
 30
0.0
 10
0.8942464192708333
 20
1.605614874098036
 30
0.0
 10
0.865566677517361
 20
1.605556805928548
 30
0.0
 10
0.8380466037326388
 20
1.61693180931939
 30
0.0
 10
0.817777845594618
 20
1.637221972147624
 30
0.0
  0
SPLINE
  5
4C
330
1F
100
AcDbEntity
  8
Layer 1
 62
   179
420
  2301728
370
    35
100
AcDbSpline
210
0.0
220
0.0
230
1.0
 70
    11
 71
     3
 72
    47
 73
    43
 74
     0
 42
0.0000000001
 43
0.0000000001
 12
1.0
 22
0.0
 32
0.0
 13
1.0
 23
0.0
 33
0.0
 40
0.0
 40
0.0
 40
0.0
 40
0.0
 40
1.0
 40
1.0
 40
1.0
 40
2.0
 40
2.0
 40
2.0
 40
3.0
 40
3.0
 40
3.0
 40
4.0
 40
4.0
 40
4.0
 40
5.0
 40
5.0
 40
5.0
 40
6.0
 40
6.0
 40
6.0
 40
7.0
 40
7.0
 40
7.0
 40
8.0
 40
8.0
 40
8.0
 40
9.0
 40
9.0
 40
9.0
 40
10.0
 40
10.0
 40
10.0
 40
11.0
 40
11.0
 40
11.0
 40
12.0
 40
12.0
 40
12.0
 40
13.0
 40
13.0
 40
13.0
 40
14.0
 40
14.0
 40
14.0
 40
14.0
 10
1.401527404785156
 20
1.675138791402181
 30
0.0
 10
1.380876329210069
 20
1.695032649570041
 30
0.0
 10
1.369366115993923
 20
1.722577306959364
 30
0.0
 10
1.369722154405382
 20
1.751249843173557
 30
0.0
 10
1.369722154405382
 20
1.751249843173557
 30
0.0
 10
1.369722154405382
 20
2.167916509840223
 30
0.0
 10
1.369722154405382
 20
2.167916509840223
 30
0.0
 10
1.368972778320312
 20
2.226399421691895
 30
0.0
 10
1.388616773817274
 20
2.283317036098904
 30
0.0
 10
1.425277709960938
 20
2.328888681199815
 30
0.0
 10
1.47027842203776
 20
2.386110835605197
 30
0.0
 10
1.533888075086806
 20
2.414721912807889
 30
0.0
 10
1.61611090766059
 20
2.414721912807889
 30
0.0
 10
1.698332892523871
 20
2.414721912807889
 30
0.0
 10
1.761945088704427
 20
2.386110835605197
 30
0.0
 10
1.806944105360243
 20
2.328888681199815
 30
0.0
 10
1.843605041503906
 20
2.283317036098904
 30
0.0
 10
1.863249037000868
 20
2.226399421691895
 30
0.0
 10
1.862499660915798
 20
2.167916509840223
 30
0.0
 10
1.862499660915798
 20
2.167916509840223
 30
0.0
 10
1.862499660915798
 20
1.751249843173557
 30
0.0
 10
1.862499660915798
 20
1.751249843173557
 30
0.0
 10
1.862499660915798
 20
1.691610866122776
 30
0.0
 10
1.814153035481771
 20
1.643263816833496
 30
0.0
 10
1.754513210720486
 20
1.643263816833496
 30
0.0
 10
1.694874233669705
 20
1.643263816833496
 30
0.0
 10
1.646527608235677
 20
1.691610866122776
 30
0.0
 10
1.646527608235677
 20
1.751249843173557
 30
0.0
 10
1.646527608235677
 20
1.751249843173557
 30
0.0
 10
1.646527608235677
 20
1.7820831934611
 30
0.0
 10
1.646527608235677
 20
1.7820831934611
 30
0.0
 10
1.646527608235677
 20
1.7820831934611
 30
0.0
 10
1.58486090766059
 20
1.7820831934611
 30
0.0
 10
1.58486090766059
 20
1.7820831934611
 30
0.0
 10
1.58486090766059
 20
1.7820831934611
 30
0.0
 10
1.58486090766059
 20
1.751249843173557
 30
0.0
 10
1.58486090766059
 20
1.751249843173557
 30
0.0
 10
1.584448920355903
 20
1.691727214389377
 30
0.0
 10
1.535862392849392
 20
1.643808682759603
 30
0.0
 10
1.476339552137587
 20
1.644220458136664
 30
0.0
 10
1.448332044813368
 20
1.644414371914334
 30
0.0
 10
1.421500311957465
 20
1.65550348493788
 30
0.0
 10
1.401527404785156
 20
1.675138791402181
 30
0.0
  0
POLYLINE
  5
4D
330
1F
100
AcDbEntity
  8
Layer 1
 62
   179
420
  2301728
370
    35
100
AcDb2dPolyline
 66
     1
 10
0.0
 20
0.0
 30
0.0
  0
VERTEX
  5
4E
330
4D
100
AcDbEntity
  8
Layer 1
 62
   179
420
  2301728
370
    35
100
AcDbVertex
100
AcDb2dVertex
 10
1.64736090766059
 20
2.16583326127794
 30
0.0
  0
VERTEX
  5
4F
330
4D
100
AcDbEntity
  8
Layer 1
 62
   179
420
  2301728
370
    35
100
AcDbVertex
100
AcDb2dVertex
 10
1.64736090766059
 20
2.007638825310601
 30
0.0
  0
SEQEND
  5
50
330
4D
100
AcDbEntity
  8
Layer 1
 62
   179
420
  2301728
370
    35
  0
SPLINE
  5
51
330
1F
100
AcDbEntity
  8
Layer 1
 62
   179
420
  2301728
370
    35
100
AcDbSpline
210
0.0
220
0.0
230
1.0
 70
    11
 71
     3
 72
    62
 73
    58
 74
     0
 42
0.0000000001
 43
0.0000000001
 12
1.0
 22
0.0
 32
0.0
 13
1.0
 23
0.0
 33
0.0
 40
0.0
 40
0.0
 40
0.0
 40
0.0
 40
1.0
 40
1.0
 40
1.0
 40
2.0
 40
2.0
 40
2.0
 40
3.0
 40
3.0
 40
3.0
 40
4.0
 40
4.0
 40
4.0
 40
5.0
 40
5.0
 40
5.0
 40
6.0
 40
6.0
 40
6.0
 40
7.0
 40
7.0
 40
7.0
 40
8.0
 40
8.0
 40
8.0
 40
9.0
 40
9.0
 40
9.0
 40
10.0
 40
10.0
 40
10.0
 40
11.0
 40
11.0
 40
11.0
 40
12.0
 40
12.0
 40
12.0
 40
13.0
 40
13.0
 40
13.0
 40
14.0
 40
14.0
 40
14.0
 40
15.0
 40
15.0
 40
15.0
 40
16.0
 40
16.0
 40
16.0
 40
17.0
 40
17.0
 40
17.0
 40
18.0
 40
18.0
 40
18.0
 40
19.0
 40
19.0
 40
19.0
 40
19.0
 10
0.893888685438368
 20
0.6091665691799587
 30
0.0
 10
0.8342497083875867
 20
0.6091665691799587
 30
0.0
 10
0.7859022352430555
 20
0.6575136184692383
 30
0.0
 10
0.7859022352430555
 20
0.7171525955200195
 30
0.0
 10
0.7859022352430555
 20
0.7767915725708008
 30
0.0
 10
0.8342497083875867
 20
0.8251386218600802
 30
0.0
 10
0.893888685438368
 20
0.8251386218600802
 30
0.0
 10
0.893888685438368
 20
0.8251386218600802
 30
0.0
 10
1.063610500759549
 20
0.8251386218600802
 30
0.0
 10
1.063610500759549
 20
0.8251386218600802
 30
0.0
 10
1.063610500759549
 20
0.8251386218600802
 30
0.0
 10
1.063610500759549
 20
0.8868053224351671
 30
0.0
 10
1.063610500759549
 20
0.8868053224351671
 30
0.0
 10
1.063610500759549
 20
0.8868053224351671
 30
0.0
 10
0.893888685438368
 20
0.8868053224351671
 30
0.0
 10
0.893888685438368
 20
0.8868053224351671
 30
0.0
 10
0.8344455295138888
 20
0.8871842490302191
 30
0.0
 10
0.7863506740993923
 20
0.935278680589464
 30
0.0
 10
0.7859717475043402
 20
0.9947218365139431
 30
0.0
 10
0.7859717475043402
 20
0.9947218365139431
 30
0.0
 10
0.7859717475043402
 20
1.272499614291721
 30
0.0
 10
0.7859717475043402
 20
1.272499614291721
 30
0.0
 10
0.7863506740993923
 20
1.3319427702162
 30
0.0
 10
0.8344455295138888
 20
1.380037201775445
 30
0.0
 10
0.893888685438368
 20
1.380416128370497
 30
0.0
 10
0.893888685438368
 20
1.380416128370497
 30
0.0
 10
1.171666463216146
 20
1.380416128370497
 30
0.0
 10
1.171666463216146
 20
1.380416128370497
 30
0.0
 10
1.231305440266927
 20
1.380416128370497
 30
0.0
 10
1.279652913411458
 20
1.332069079081217
 30
0.0
 10
1.279652913411458
 20
1.272430102030436
 30
0.0
 10
1.279652913411458
 20
1.212791124979655
 30
0.0
 10
1.231305440266927
 20
1.164444075690375
 30
0.0
 10
1.171666463216146
 20
1.164444075690375
 30
0.0
 10
1.171666463216146
 20
1.164444075690375
 30
0.0
 10
1.001805623372396
 20
1.164444075690375
 30
0.0
 10
1.001805623372396
 20
1.164444075690375
 30
0.0
 10
1.001805623372396
 20
1.164444075690375
 30
0.0
 10
1.001805623372396
 20
1.102777375115289
 30
0.0
 10
1.001805623372396
 20
1.102777375115289
 30
0.0
 10
1.001805623372396
 20
1.102777375115289
 30
0.0
 10
1.171527438693576
 20
1.102777375115289
 30
0.0
 10
1.171527438693576
 20
1.102777375115289
 30
0.0
 10
1.230970594618056
 20
1.102398448520236
 30
0.0
 10
1.279065450032552
 20
1.054304016960992
 30
0.0
 10
1.279444376627604
 20
0.9948608610365125
 30
0.0
 10
1.279444376627604
 20
0.9948608610365125
 30
0.0
 10
1.279444376627604
 20
0.7170830832587348
 30
0.0
 10
1.279444376627604
 20
0.7170830832587348
 30
0.0
 10
1.279065450032552
 20
0.6576399273342556
 30
0.0
 10
1.230970594618056
 20
0.6095454957750108
 30
0.0
 10
1.171527438693576
 20
0.6091665691799587
 30
0.0
 10
1.171527438693576
 20
0.6091665691799587
 30
0.0
 10
0.8937496609157985
 20
0.6091665691799587
 30
0.0
 10
0.8937496609157985
 20
0.6091665691799587
 30
0.0
 10
0.8937496609157985
 20
0.6091665691799587
 30
0.0
 10
0.893888685438368
 20
0.6091665691799587
 30
0.0
 10
0.893888685438368
 20
0.6091665691799587
 30
0.0
  0
SPLINE
  5
52
330
1F
100
AcDbEntity
  8
Layer 1
 62
   179
420
  2301728
370
    35
100
AcDbSpline
210
0.0
220
0.0
230
1.0
 70
    11
 71
     3
 72
    65
 73
    61
 74
     0
 42
0.0000000001
 43
0.0000000001
 12
1.0
 22
0.0
 32
0.0
 13
1.0
 23
0.0
 33
0.0
 40
0.0
 40
0.0
 40
0.0
 40
0.0
 40
1.0
 40
1.0
 40
1.0
 40
2.0
 40
2.0
 40
2.0
 40
3.0
 40
3.0
 40
3.0
 40
4.0
 40
4.0
 40
4.0
 40
5.0
 40
5.0
 40
5.0
 40
6.0
 40
6.0
 40
6.0
 40
7.0
 40
7.0
 40
7.0
 40
8.0
 40
8.0
 40
8.0
 40
9.0
 40
9.0
 40
9.0
 40
10.0
 40
10.0
 40
10.0
 40
11.0
 40
11.0
 40
11.0
 40
12.0
 40
12.0
 40
12.0
 40
13.0
 40
13.0
 40
13.0
 40
14.0
 40
14.0
 40
14.0
 40
15.0
 40
15.0
 40
15.0
 40
16.0
 40
16.0
 40
16.0
 40
17.0
 40
17.0
 40
17.0
 40
18.0
 40
18.0
 40
18.0
 40
19.0
 40
19.0
 40
19.0
 40
20.0
 40
20.0
 40
20.0
 40
20.0
 10
1.407777574327257
 20
1.272499614291721
 30
0.0
 10
1.407777574327257
 20
1.332138591342502
 30
0.0
 10
1.456124199761285
 20
1.380485640631782
 30
0.0
 10
1.515764024522569
 20
1.380485640631782
 30
0.0
 10
1.575403001573351
 20
1.380485640631782
 30
0.0
 10
1.623749627007378
 20
1.332138591342502
 30
0.0
 10
1.623749627007378
 20
1.272499614291721
 30
0.0
 10
1.623749627007378
 20
1.272499614291721
 30
0.0
 10
1.623749627007378
 20
1.212777561611599
 30
0.0
 10
1.623749627007378
 20
1.212777561611599
 30
0.0
 10
1.623749627007378
 20
1.212777561611599
 30
0.0
 10
1.703749762641059
 20
1.332360691494412
 30
0.0
 10
1.703749762641059
 20
1.332360691494412
 30
0.0
 10
1.722833421495226
 20
1.363371213277181
 30
0.0
 10
1.757080078125
 20
1.38176695505778
 30
0.0
 10
1.793472290039062
 20
1.380555152893066
 30
0.0
 10
1.814785427517361
 20
1.380689091152615
 30
0.0
 10
1.835627237955729
 20
1.374290996127658
 30
0.0
 10
1.853194342719184
 20
1.362221717834473
 30
0.0
 10
1.884204440646701
 20
1.343138058980306
 30
0.0
 10
1.902599758572048
 20
1.308891402350532
 30
0.0
 10
1.901388380262587
 20
1.272499614291721
 30
0.0
 10
1.901531643337673
 20
1.251185205247667
 30
0.0
 10
1.895132276746962
 20
1.230340427822537
 30
0.0
 10
1.883054945203993
 20
1.212777561611599
 30
0.0
 10
1.883054945203993
 20
1.212777561611599
 30
0.0
 10
1.75958251953125
 20
1.026666535271539
 30
0.0
 10
1.75958251953125
 20
1.026666535271539
 30
0.0
 10
1.75958251953125
 20
1.026666535271539
 30
0.0
 10
1.889721340603298
 20
0.7654165691799587
 30
0.0
 10
1.889721340603298
 20
0.7654165691799587
 30
0.0
 10
1.897304111056858
 20
0.7504833009507921
 30
0.0
 10
1.901253594292535
 20
0.7339703241984049
 30
0.0
 10
1.901249355740017
 20
0.7172221077813042
 30
0.0
 10
1.903082953559028
 20
0.6758614646063911
 30
0.0
 10
1.879379272460938
 20
0.6376047134399414
 30
0.0
 10
1.841527303059896
 20
0.6208331849839952
 30
0.0
 10
1.826592339409722
 20
0.6132559246487087
 30
0.0
 10
1.81008063422309
 20
0.6093064414130317
 30
0.0
 10
1.793333265516493
 20
0.6093055937025281
 30
0.0
 10
1.75197262234158
 20
0.6074719958835177
 30
0.0
 10
1.713715447319878
 20
0.631175676981608
 30
0.0
 10
1.696944342719184
 20
0.6690276463826497
 30
0.0
 10
1.696944342719184
 20
0.6690276463826497
 30
0.0
 10
1.623610602484809
 20
0.8155552546183268
 30
0.0
 10
1.623610602484809
 20
0.8155552546183268
 30
0.0
 10
1.623610602484809
 20
0.8155552546183268
 30
0.0
 10
1.623610602484809
 20
0.7172221077813042
 30
0.0
 10
1.623610602484809
 20
0.7172221077813042
 30
0.0
 10
1.623610602484809
 20
0.657583130730523
 30
0.0
 10
1.575263977050781
 20
0.6092360814412434
 30
0.0
 10
1.515625
 20
0.6092360814412434
 30
0.0
 10
1.455985175238715
 20
0.6092360814412434
 30
0.0
 10
1.407638549804688
 20
0.657583130730523
 30
0.0
 10
1.407638549804688
 20
0.7172221077813042
 30
0.0
 10
1.407638549804688
 20
0.7172221077813042
 30
0.0
 10
1.407638549804688
 20
1.27277766333686
 30
0.0
 10
1.407638549804688
 20
1.27277766333686
 30
0.0
 10
1.407638549804688
 20
1.27277766333686
 30
0.0
 10
1.407777574327257
 20
1.272499614291721
 30
0.0
 10
1.407777574327257
 20
1.272499614291721
 30
0.0
  0
SPLINE
  5
53
330
1F
100
AcDbEntity
  8
Layer 1
 62
   179
420
  2301728
370
    35
100
AcDbSpline
210
0.0
220
0.0
230
1.0
 70
    11
 71
     3
 72
    26
 73
    22
 74
     0
 42
0.0000000001
 43
0.0000000001
 12
1.0
 22
0.0
 32
0.0
 13
1.0
 23
0.0
 33
0.0
 40
0.0
 40
0.0
 40
0.0
 40
0.0
 40
1.0
 40
1.0
 40
1.0
 40
2.0
 40
2.0
 40
2.0
 40
3.0
 40
3.0
 40
3.0
 40
4.0
 40
4.0
 40
4.0
 40
5.0
 40
5.0
 40
5.0
 40
6.0
 40
6.0
 40
6.0
 40
7.0
 40
7.0
 40
7.0
 40
7.0
 10
2.213750203450521
 20
0.6409722434149848
 30
0.0
 10
2.171574062771267
 20
0.5988601048787434
 30
0.0
 10
2.103245205349392
 20
0.598912239074707
 30
0.0
 10
2.061132642957899
 20
0.6410883797539605
 30
0.0
 10
2.040992736816406
 20
0.661259651184082
 30
0.0
 10
2.029651217990451
 20
0.688579241434733
 30
0.0
 10
2.029583401150174
 20
0.7170835071139865
 30
0.0
 10
2.029583401150174
 20
0.7170835071139865
 30
0.0
 10
2.029583401150174
 20
1.272639062669542
 30
0.0
 10
2.029583401150174
 20
1.272639062669542
 30
0.0
 10
2.029583401150174
 20
1.332278039720323
 30
0.0
 10
2.077930026584201
 20
1.380625089009603
 30
0.0
 10
2.137569851345486
 20
1.380625089009603
 30
0.0
 10
2.197208828396267
 20
1.380625089009603
 30
0.0
 10
2.245555453830295
 20
1.332278039720323
 30
0.0
 10
2.245555453830295
 20
1.272639062669542
 30
0.0
 10
2.245555453830295
 20
1.272639062669542
 30
0.0
 10
2.245555453830295
 20
0.7170835071139865
 30
0.0
 10
2.245555453830295
 20
0.7170835071139865
 30
0.0
 10
2.245911492241753
 20
0.6884109708997938
 30
0.0
 10
2.234401279025608
 20
0.6608663135104709
 30
0.0
 10
2.213750203450521
 20
0.6409722434149848
 30
0.0
  0
SPLINE
  5
54
330
1F
100
AcDbEntity
  8
Layer 1
 62
   179
420
  2301728
370
    35
100
AcDbSpline
210
0.0
220
0.0
230
1.0
 70
    11
 71
     3
 72
    38
 73
    34
 74
     0
 42
0.0000000001
 43
0.0000000001
 12
1.0
 22
0.0
 32
0.0
 13
1.0
 23
0.0
 33
0.0
 40
0.0
 40
0.0
 40
0.0
 40
0.0
 40
1.0
 40
1.0
 40
1.0
 40
2.0
 40
2.0
 40
2.0
 40
3.0
 40
3.0
 40
3.0
 40
4.0
 40
4.0
 40
4.0
 40
5.0
 40
5.0
 40
5.0
 40
6.0
 40
6.0
 40
6.0
 40
7.0
 40
7.0
 40
7.0
 40
8.0
 40
8.0
 40
8.0
 40
9.0
 40
9.0
 40
9.0
 40
10.0
 40
10.0
 40
10.0
 40
11.0
 40
11.0
 40
11.0
 40
11.0
 10
2.356388515896267
 20
0.6409722434149848
 30
0.0
 10
2.33573744032118
 20
0.6608663135104709
 30
0.0
 10
2.324227227105034
 20
0.6884109708997938
 30
0.0
 10
2.324583265516493
 20
0.7170835071139865
 30
0.0
 10
2.324583265516493
 20
0.7170835071139865
 30
0.0
 10
2.324583265516493
 20
1.272639062669542
 30
0.0
 10
2.324583265516493
 20
1.272639062669542
 30
0.0
 10
2.324583265516493
 20
1.332278039720323
 30
0.0
 10
2.372929890950521
 20
1.380625089009603
 30
0.0
 10
2.432569715711805
 20
1.380625089009603
 30
0.0
 10
2.492208692762587
 20
1.380625089009603
 30
0.0
 10
2.540555318196614
 20
1.332278039720323
 30
0.0
 10
2.540555318196614
 20
1.272639062669542
 30
0.0
 10
2.540555318196614
 20
1.272639062669542
 30
0.0
 10
2.540555318196614
 20
0.8252780702379015
 30
0.0
 10
2.540555318196614
 20
0.8252780702379015
 30
0.0
 10
2.540555318196614
 20
0.8252780702379015
 30
0.0
 10
2.710277133517795
 20
0.8252780702379015
 30
0.0
 10
2.710277133517795
 20
0.8252780702379015
 30
0.0
 10
2.769916110568576
 20
0.8252780702379015
 30
0.0
 10
2.818263583713108
 20
0.7769310209486219
 30
0.0
 10
2.818263583713108
 20
0.7172920438978406
 30
0.0
 10
2.818263583713108
 20
0.6576530668470594
 30
0.0
 10
2.769916110568576
 20
0.6093060175577799
 30
0.0
 10
2.710277133517795
 20
0.6093060175577799
 30
0.0
 10
2.710277133517795
 20
0.6093060175577799
 30
0.0
 10
2.710277133517795
 20
0.6093060175577799
 30
0.0
 10
2.710277133517795
 20
0.6093060175577799
 30
0.0
 10
2.710277133517795
 20
0.6093060175577799
 30
0.0
 10
2.432499355740017
 20
0.6093060175577799
 30
0.0
 10
2.432499355740017
 20
0.6093060175577799
 30
0.0
 10
2.403847588433159
 20
0.6089135275946723
 30
0.0
 10
2.37630632188585
 20
0.6203720304701063
 30
0.0
 10
2.356388515896267
 20
0.6409722434149848
 30
0.0
  0
SPLINE
  5
55
330
1F
100
AcDbEntity
  8
Layer 1
 62
   179
420
  2301728
370
    35
100
AcDbSpline
210
0.0
220
0.0
230
1.0
 70
    11
 71
     3
 72
    38
 73
    34
 74
     0
 42
0.0000000001
 43
0.0000000001
 12
1.0
 22
0.0
 32
0.0
 13
1.0
 23
0.0
 33
0.0
 40
0.0
 40
0.0
 40
0.0
 40
0.0
 40
1.0
 40
1.0
 40
1.0
 40
2.0
 40
2.0
 40
2.0
 40
3.0
 40
3.0
 40
3.0
 40
4.0
 40
4.0
 40
4.0
 40
5.0
 40
5.0
 40
5.0
 40
6.0
 40
6.0
 40
6.0
 40
7.0
 40
7.0
 40
7.0
 40
8.0
 40
8.0
 40
8.0
 40
9.0
 40
9.0
 40
9.0
 40
10.0
 40
10.0
 40
10.0
 40
11.0
 40
11.0
 40
11.0
 40
11.0
 10
2.978194342719184
 20
0.6409722434149848
 30
0.0
 10
2.957543267144097
 20
0.6608663135104709
 30
0.0
 10
2.946033053927951
 20
0.6884109708997938
 30
0.0
 10
2.946389092339409
 20
0.7170835071139865
 30
0.0
 10
2.946389092339409
 20
0.7170835071139865
 30
0.0
 10
2.946389092339409
 20
1.272639062669542
 30
0.0
 10
2.946389092339409
 20
1.272639062669542
 30
0.0
 10
2.946389092339409
 20
1.332278039720323
 30
0.0
 10
2.994735717773438
 20
1.380625089009603
 30
0.0
 10
3.054375542534722
 20
1.380625089009603
 30
0.0
 10
3.114014519585503
 20
1.380625089009603
 30
0.0
 10
3.162361145019531
 20
1.332278039720323
 30
0.0
 10
3.162361145019531
 20
1.272639062669542
 30
0.0
 10
3.162361145019531
 20
1.272639062669542
 30
0.0
 10
3.162361145019531
 20
0.8252780702379015
 30
0.0
 10
3.162361145019531
 20
0.8252780702379015
 30
0.0
 10
3.162361145019531
 20
0.8252780702379015
 30
0.0
 10
3.332082960340712
 20
0.8252780702379015
 30
0.0
 10
3.332082960340712
 20
0.8252780702379015
 30
0.0
 10
3.391721937391493
 20
0.8252780702379015
 30
0.0
 10
3.440069410536024
 20
0.7769310209486219
 30
0.0
 10
3.440069410536024
 20
0.7172920438978406
 30
0.0
 10
3.440069410536024
 20
0.6576530668470594
 30
0.0
 10
3.391721937391493
 20
0.6093060175577799
 30
0.0
 10
3.332082960340712
 20
0.6093060175577799
 30
0.0
 10
3.332082960340712
 20
0.6093060175577799
 30
0.0
 10
3.332082960340712
 20
0.6093060175577799
 30
0.0
 10
3.332082960340712
 20
0.6093060175577799
 30
0.0
 10
3.332082960340712
 20
0.6093060175577799
 30
0.0
 10
3.054305182562934
 20
0.6093060175577799
 30
0.0
 10
3.054305182562934
 20
0.6093060175577799
 30
0.0
 10
3.025653415256076
 20
0.6089135275946723
 30
0.0
 10
2.998112148708767
 20
0.6203720304701063
 30
0.0
 10
2.978194342719184
 20
0.6409722434149848
 30
0.0
  0
SPLINE
  5
56
330
1F
100
AcDbEntity
  8
Layer 1
 62
   179
420
  2301728
370
    35
100
AcDbSpline
210
0.0
220
0.0
230
1.0
 70
    11
 71
     3
 72
    65
 73
    61
 74
     0
 42
0.0000000001
 43
0.0000000001
 12
1.0
 22
0.0
 32
0.0
 13
1.0
 23
0.0
 33
0.0
 40
0.0
 40
0.0
 40
0.0
 40
0.0
 40
1.0
 40
1.0
 40
1.0
 40
2.0
 40
2.0
 40
2.0
 40
3.0
 40
3.0
 40
3.0
 40
4.0
 40
4.0
 40
4.0
 40
5.0
 40
5.0
 40
5.0
 40
6.0
 40
6.0
 40
6.0
 40
7.0
 40
7.0
 40
7.0
 40
8.0
 40
8.0
 40
8.0
 40
9.0
 40
9.0
 40
9.0
 40
10.0
 40
10.0
 40
10.0
 40
11.0
 40
11.0
 40
11.0
 40
12.0
 40
12.0
 40
12.0
 40
13.0
 40
13.0
 40
13.0
 40
14.0
 40
14.0
 40
14.0
 40
15.0
 40
15.0
 40
15.0
 40
16.0
 40
16.0
 40
16.0
 40
17.0
 40
17.0
 40
17.0
 40
18.0
 40
18.0
 40
18.0
 40
19.0
 40
19.0
 40
19.0
 40
20.0
 40
20.0
 40
20.0
 40
20.0
 10
3.67625003390842
 20
0.6091665691799587
 30
0.0
 10
3.616611056857639
 20
0.6091665691799587
 30
0.0
 10
3.568264431423611
 20
0.6575136184692383
 30
0.0
 10
3.568264431423611
 20
0.7171525955200195
 30
0.0
 10
3.568264431423611
 20
0.7767915725708008
 30
0.0
 10
3.616611056857639
 20
0.8251386218600802
 30
0.0
 10
3.67625003390842
 20
0.8251386218600802
 30
0.0
 10
3.67625003390842
 20
0.8251386218600802
 30
0.0
 10
3.8459718492296
 20
0.8251386218600802
 30
0.0
 10
3.8459718492296
 20
0.8251386218600802
 30
0.0
 10
3.8459718492296
 20
0.8251386218600802
 30
0.0
 10
3.8459718492296
 20
0.8868053224351671
 30
0.0
 10
3.8459718492296
 20
0.8868053224351671
 30
0.0
 10
3.8459718492296
 20
0.8868053224351671
 30
0.0
 10
3.67625003390842
 20
0.8868053224351671
 30
0.0
 10
3.67625003390842
 20
0.8868053224351671
 30
0.0
 10
3.616752624511719
 20
0.8871083789401584
 30
0.0
 10
3.568573845757378
 20
0.9352248509724934
 30
0.0
 10
3.568194071451823
 20
0.9947218365139431
 30
0.0
 10
3.568194071451823
 20
0.9947218365139431
 30
0.0
 10
3.568194071451823
 20
1.272499614291721
 30
0.0
 10
3.568194071451823
 20
1.272499614291721
 30
0.0
 10
3.568573845757378
 20
1.33199659983317
 30
0.0
 10
3.616752624511719
 20
1.380113071865505
 30
0.0
 10
3.67625003390842
 20
1.380416128370497
 30
0.0
 10
3.67625003390842
 20
1.380416128370497
 30
0.0
 10
3.954027811686198
 20
1.380416128370497
 30
0.0
 10
3.954027811686198
 20
1.380416128370497
 30
0.0
 10
4.013666788736979
 20
1.380416128370497
 30
0.0
 10
4.06201426188151
 20
1.332069079081217
 30
0.0
 10
4.06201426188151
 20
1.272430102030436
 30
0.0
 10
4.06201426188151
 20
1.212791124979655
 30
0.0
 10
4.013666788736979
 20
1.164444075690375
 30
0.0
 10
3.954027811686198
 20
1.164444075690375
 30
0.0
 10
3.954027811686198
 20
1.164444075690375
 30
0.0
 10
3.954027811686198
 20
1.164444075690375
 30
0.0
 10
3.954027811686198
 20
1.164444075690375
 30
0.0
 10
3.954027811686198
 20
1.164444075690375
 30
0.0
 10
3.784166971842448
 20
1.164444075690375
 30
0.0
 10
3.784166971842448
 20
1.164444075690375
 30
0.0
 10
3.784166971842448
 20
1.164444075690375
 30
0.0
 10
3.784166971842448
 20
1.102777375115289
 30
0.0
 10
3.784166971842448
 20
1.102777375115289
 30
0.0
 10
3.784166971842448
 20
1.102777375115289
 30
0.0
 10
3.953888787163628
 20
1.102777375115289
 30
0.0
 10
3.953888787163628
 20
1.102777375115289
 30
0.0
 10
4.013386196560329
 20
1.102474318610297
 30
0.0
 10
4.06156497531467
 20
1.054357846577962
 30
0.0
 10
4.061944749620226
 20
0.9948608610365125
 30
0.0
 10
4.061944749620226
 20
0.9948608610365125
 30
0.0
 10
4.061944749620226
 20
0.7170830832587348
 30
0.0
 10
4.061944749620226
 20
0.7170830832587348
 30
0.0
 10
4.06156497531467
 20
0.6575860977172852
 30
0.0
 10
4.013386196560329
 20
0.60946962568495
 30
0.0
 10
3.953888787163628
 20
0.6091665691799587
 30
0.0
 10
3.953888787163628
 20
0.6091665691799587
 30
0.0
 10
3.67611100938585
 20
0.6091665691799587
 30
0.0
 10
3.67611100938585
 20
0.6091665691799587
 30
0.0
 10
3.67611100938585
 20
0.6091665691799587
 30
0.0
 10
3.67625003390842
 20
0.6091665691799587
 30
0.0
 10
3.67625003390842
 20
0.6091665691799587
 30
0.0
  0
SPLINE
  5
57
330
1F
100
AcDbEntity
  8
Layer 1
 62
   179
420
  2301728
370
    35
100
AcDbSpline
210
0.0
220
0.0
230
1.0
 70
     8
 71
     3
 72
    35
 73
    31
 74
     0
 42
0.0000000001
 43
0.0000000001
 12
1.0
 22
0.0
 32
0.0
 13
1.0
 23
0.0
 33
0.0
 40
0.0
 40
0.0
 40
0.0
 40
0.0
 40
1.0
 40
1.0
 40
1.0
 40
2.0
 40
2.0
 40
2.0
 40
3.0
 40
3.0
 40
3.0
 40
4.0
 40
4.0
 40
4.0
 40
5.0
 40
5.0
 40
5.0
 40
6.0
 40
6.0
 40
6.0
 40
7.0
 40
7.0
 40
7.0
 40
8.0
 40
8.0
 40
8.0
 40
9.0
 40
9.0
 40
9.0
 40
10.0
 40
10.0
 40
10.0
 40
10.0
 10
2.104027642144097
 20
1.642499817742242
 30
0.0
 10
2.104027642144097
 20
1.642499817742242
 30
0.0
 10
2.293333265516493
 20
1.642499817742242
 30
0.0
 10
2.293333265516493
 20
1.642499817742242
 30
0.0
 10
2.341200086805555
 20
1.64195728302002
 30
0.0
 10
2.387759738498264
 20
1.658115492926703
 30
0.0
 10
2.424999660915799
 20
1.688194168938531
 30
0.0
 10
2.471758524576823
 20
1.72523127661811
 30
0.0
 10
2.495138380262587
 20
1.777268197801378
 30
0.0
 10
2.495138380262587
 20
1.844305356343587
 30
0.0
 10
2.495138380262587
 20
1.911342514885796
 30
0.0
 10
2.471758524576823
 20
1.963379436069065
 30
0.0
 10
2.424999660915799
 20
2.000416543748643
 30
0.0
 10
2.410824245876736
 20
2.011600812276204
 30
0.0
 10
2.395282321506076
 20
2.020934952629937
 30
0.0
 10
2.378749423556858
 20
2.028194321526422
 30
0.0
 10
2.395281473795573
 20
2.035454961988661
 30
0.0
 10
2.410823398166233
 20
2.044789102342393
 30
0.0
 10
2.424999660915799
 20
2.055972099304199
 30
0.0
 10
2.471758524576823
 20
2.093008995056152
 30
0.0
 10
2.495138380262587
 20
2.145046340094672
 30
0.0
 10
2.495138380262587
 20
2.212083286709256
 30
0.0
 10
2.495138380262587
 20
2.279120233323839
 30
0.0
 10
2.471758524576823
 20
2.331157578362359
 30
0.0
 10
2.424999660915799
 20
2.368194474114312
 30
0.0
 10
2.387765672471788
 20
2.398283534579807
 30
0.0
 10
2.341201782226562
 20
2.414443016052246
 30
0.0
 10
2.293333265516493
 20
2.413888825310601
 30
0.0
 10
2.293333265516493
 20
2.413888825310601
 30
0.0
 10
2.126666598849826
 20
2.413888825310601
 30
0.0
 10
2.126666598849826
 20
2.413888825310601
 30
0.0
  0
ENDSEC
  0
SECTION
  2
OBJECTS
  0
DICTIONARY
  5
C
330
0
100
AcDbDictionary
281
     1
  3
ACAD_GROUP
350
D
  3
ACAD_LAYOUT
350
1A
  3
ACAD_MATERIAL
350
3B
  3
ACAD_MLEADERSTYLE
350
59
  3
ACAD_MLINESTYLE
350
17
  3
ACAD_PLOTSETTINGS
350
19
  3
ACAD_PLOTSTYLENAME
350
E
  3
ACAD_TABLESTYLE
350
58
  3
ACAD_VISUALSTYLE
350
2A
  0
SUN
  5
3F
330
29
100
AcDbSun
 90
        1
290
     0
 63
     7
421
 16777215
 40
1.0
291
     1
 91
  2455826
 92
 54000000
292
     0
 70
     2
 71
   256
280
     1
  0
DICTIONARY
  5
D
102
{ACAD_REACTORS
330
C
102
}
330
C
100
AcDbDictionary
281
     1
  0
DICTIONARY
  5
1A
102
{ACAD_REACTORS
330
C
102
}
330
C
100
AcDbDictionary
281
     1
  3
Layout1
350
1E
  3
Layout2
350
26
  3
Model
350
22
  0
DICTIONARY
  5
3B
102
{ACAD_REACTORS
330
C
102
}
330
C
100
AcDbDictionary
281
     1
  3
ByBlock
350
3D
  3
ByLayer
350
3C
  3
Global
350
3E
  0
DICTIONARY
  5
59
102
{ACAD_REACTORS
330
C
102
}
330
C
100
AcDbDictionary
281
     1
  0
DICTIONARY
  5
17
102
{ACAD_REACTORS
330
C
102
}
330
C
100
AcDbDictionary
281
     1
  3
Standard
350
18
  0
DICTIONARY
  5
19
102
{ACAD_REACTORS
330
C
102
}
330
C
100
AcDbDictionary
281
     1
  0
ACDBDICTIONARYWDFLT
  5
E
102
{ACAD_REACTORS
330
C
102
}
330
C
100
AcDbDictionary
281
     1
  3
Normal
350
F
100
AcDbDictionaryWithDefault
340
F
  0
DICTIONARY
  5
58
102
{ACAD_REACTORS
330
C
102
}
330
C
100
AcDbDictionary
281
     1
  0
DICTIONARY
  5
2A
102
{ACAD_REACTORS
330
C
102
}
330
C
100
AcDbDictionary
281
     1
  3
2dWireframe
350
2F
  3
3D Hidden
350
31
  3
3dWireframe
350
30
  3
Basic
350
32
  3
Brighten
350
36
  3
ColorChange
350
3A
  3
Conceptual
350
34
  3
Dim
350
35
  3
Facepattern
350
39
  3
Flat
350
2B
  3
FlatWithEdges
350
2C
  3
Gouraud
350
2D
  3
GouraudWithEdges
350
2E
  3
Linepattern
350
38
  3
Realistic
350
33
  3
Thicken
350
37
  0
LAYOUT
  5
1E
102
{ACAD_REACTORS
330
1A
102
}
330
1A
100
AcDbPlotSettings
  1

  2
none_device
  4

  6

 40
0.0
 41
0.0
 42
0.0
 43
0.0
 44
0.0
 45
0.0
 46
0.0
 47
0.0
 48
0.0
 49
0.0
140
0.0
141
0.0
142
1.0
143
1.0
 70
   688
 72
     0
 73
     0
 74
     5
  7

 75
    16
 76
     0
 77
     2
 78
   300
147
1.0
148
0.0
149
0.0
100
AcDbLayout
  1
Layout1
 70
     1
 71
     1
 10
0.0
 20
0.0
 11
12.0
 21
9.0
 12
0.0
 22
0.0
 32
0.0
 14
1.000000000000000E+20
 24
1.000000000000000E+20
 34
1.000000000000000E+20
 15
-1.000000000000000E+20
 25
-1.000000000000000E+20
 35
-1.000000000000000E+20
146
0.0
 13
0.0
 23
0.0
 33
0.0
 16
1.0
 26
0.0
 36
0.0
 17
0.0
 27
1.0
 37
0.0
 76
     0
330
1B
  0
LAYOUT
  5
26
102
{ACAD_REACTORS
330
1A
102
}
330
1A
100
AcDbPlotSettings
  1

  2
none_device
  4

  6

 40
0.0
 41
0.0
 42
0.0
 43
0.0
 44
0.0
 45
0.0
 46
0.0
 47
0.0
 48
0.0
 49
0.0
140
0.0
141
0.0
142
1.0
143
1.0
 70
   688
 72
     0
 73
     0
 74
     5
  7

 75
    16
 76
     0
 77
     2
 78
   300
147
1.0
148
0.0
149
0.0
100
AcDbLayout
  1
Layout2
 70
     1
 71
     2
 10
0.0
 20
0.0
 11
0.0
 21
0.0
 12
0.0
 22
0.0
 32
0.0
 14
0.0
 24
0.0
 34
0.0
 15
0.0
 25
0.0
 35
0.0
146
0.0
 13
0.0
 23
0.0
 33
0.0
 16
1.0
 26
0.0
 36
0.0
 17
0.0
 27
1.0
 37
0.0
 76
     0
330
23
  0
LAYOUT
  5
22
102
{ACAD_REACTORS
330
1A
102
}
330
1A
100
AcDbPlotSettings
  1

  2
none_device
  4

  6

 40
0.0
 41
0.0
 42
0.0
 43
0.0
 44
0.0
 45
0.0
 46
0.0
 47
0.0
 48
0.0
 49
0.0
140
0.0
141
0.0
142
1.0
143
1.0
 70
  1712
 72
     0
 73
     0
 74
     0
  7

 75
     0
 76
     0
 77
     2
 78
   300
147
1.0
148
0.0
149
0.0
100
AcDbLayout
  1
Model
 70
     1
 71
     0
 10
0.0
 20
0.0
 11
12.0
 21
9.0
 12
0.0
 22
0.0
 32
0.0
 14
1.000000000000000E+20
 24
1.000000000000000E+20
 34
1.000000000000000E+20
 15
-1.000000000000000E+20
 25
-1.000000000000000E+20
 35
-1.000000000000000E+20
146
0.0
 13
0.0
 23
0.0
 33
0.0
 16
1.0
 26
0.0
 36
0.0
 17
0.0
 27
1.0
 37
0.0
 76
     0
330
1F
331
29
  0
MATERIAL
  5
3D
102
{ACAD_REACTORS
330
3B
102
}
330
3B
100
AcDbMaterial
  1
ByBlock
 72
     1
 94
      127
  0
MATERIAL
  5
3C
102
{ACAD_REACTORS
330
3B
102
}
330
3B
100
AcDbMaterial
  1
ByLayer
 72
     1
 94
      127
  0
MATERIAL
  5
3E
102
{ACAD_REACTORS
330
3B
102
}
330
3B
100
AcDbMaterial
  1
Global
 72
     1
 94
      127
  0
MLINESTYLE
  5
18
102
{ACAD_REACTORS
330
17
102
}
330
17
100
AcDbMlineStyle
  2
Standard
 70
     0
  3

 62
   256
 51
90.0
 52
90.0
 71
     2
 49
0.5
 62
   256
  6
BYLAYER
 49
-0.5
 62
   256
  6
BYLAYER
  0
ACDBPLACEHOLDER
  5
F
102
{ACAD_REACTORS
330
E
102
}
330
E
  0
VISUALSTYLE
  5
2F
102
{ACAD_REACTORS
330
2A
102
}
330
2A
100
AcDbVisualStyle
  2
2dWireframe
 70
     4
177
     2
291
     0
 71
     0
176
     1
 72
     2
176
     1
 73
     0
176
     1
 90
        0
176
     1
 40
-0.6
176
     1
 41
-30.0
176
     1
 62
     5
 63
     7
421
 16777215
176
     1
 74
     1
176
     1
 91
        4
176
     1
 64
     7
176
     1
 65
   257
176
     1
 75
     1
176
     1
175
     1
176
     1
 42
1.0
176
     1
 92
        0
176
     1
 66
   257
176
     1
 43
1.0
176
     1
 76
     1
176
     1
 77
     6
176
     1
 78
     2
176
     1
 67
     7
176
     1
 79
     5
176
     1
170
     0
176
     1
171
     0
176
     1
290
     0
176
     1
 93
        1
176
     1
 44
0.0
176
     1
173
     0
176
     1
  0
VISUALSTYLE
  5
31
102
{ACAD_REACTORS
330
2A
102
}
330
2A
100
AcDbVisualStyle
  2
3D Hidden
 70
     6
177
     2
291
     0
 71
     1
176
     1
 72
     2
176
     1
 73
     2
176
     1
 90
        0
176
     1
 40
-0.6
176
     1
 41
-30.0
176
     1
 62
     5
 63
     7
421
 16777215
176
     1
 74
     2
176
     1
 91
        2
176
     1
 64
     7
176
     1
 65
   257
176
     1
 75
     2
176
     1
175
     1
176
     1
 42
40.0
176
     1
 92
        0
176
     1
 66
   257
176
     1
 43
1.0
176
     1
 76
     1
176
     1
 77
     6
176
     1
 78
     2
176
     1
 67
     7
176
     1
 79
     3
176
     1
170
     0
176
     1
171
     0
176
     1
290
     0
176
     1
 93
        1
176
     1
 44
0.0
176
     1
173
     0
176
     1
  0
VISUALSTYLE
  5
30
102
{ACAD_REACTORS
330
2A
102
}
330
2A
100
AcDbVisualStyle
  2
3dWireframe
 70
     5
177
     2
291
     0
 71
     0
176
     1
 72
     2
176
     1
 73
     0
176
     1
 90
        0
176
     1
 40
-0.6
176
     1
 41
-30.0
176
     1
 62
     5
 63
     7
421
 16777215
176
     1
 74
     1
176
     1
 91
        4
176
     1
 64
     7
176
     1
 65
   257
176
     1
 75
     1
176
     1
175
     1
176
     1
 42
1.0
176
     1
 92
        0
176
     1
 66
   257
176
     1
 43
1.0
176
     1
 76
     1
176
     1
 77
     6
176
     1
 78
     2
176
     1
 67
     7
176
     1
 79
     5
176
     1
170
     0
176
     1
171
     0
176
     1
290
     0
176
     1
 93
        1
176
     1
 44
0.0
176
     1
173
     0
176
     1
  0
VISUALSTYLE
  5
32
102
{ACAD_REACTORS
330
2A
102
}
330
2A
100
AcDbVisualStyle
  2
Basic
 70
     7
177
     2
291
     1
 71
     1
176
     1
 72
     0
176
     1
 73
     1
176
     1
 90
        0
176
     1
 40
-0.6
176
     1
 41
-30.0
176
     1
 62
     5
 63
     7
421
 16777215
176
     1
 74
     0
176
     1
 91
        4
176
     1
 64
     7
176
     1
 65
   257
176
     1
 75
     1
176
     1
175
     1
176
     1
 42
1.0
176
     1
 92
        8
176
     1
 66
     7
176
     1
 43
1.0
176
     1
 76
     1
176
     1
 77
     6
176
     1
 78
     2
176
     1
 67
     7
176
     1
 79
     5
176
     1
170
     0
176
     1
171
     0
176
     1
290
     0
176
     1
 93
        1
176
     1
 44
0.0
176
     1
173
     0
176
     1
  0
VISUALSTYLE
  5
36
102
{ACAD_REACTORS
330
2A
102
}
330
2A
100
AcDbVisualStyle
  2
Brighten
 70
    12
177
     2
291
     1
 71
     2
176
     1
 72
     2
176
     1
 73
     0
176
     1
 90
        0
176
     1
 40
-0.6
176
     1
 41
-30.0
176
     1
 62
     5
 63
     7
421
 16777215
176
     1
 74
     1
176
     1
 91
        4
176
     1
 64
     7
176
     1
 65
   257
176
     1
 75
     1
176
     1
175
     1
176
     1
 42
1.0
176
     1
 92
        8
176
     1
 66
     7
176
     1
 43
1.0
176
     1
 76
     1
176
     1
 77
     6
176
     1
 78
     2
176
     1
 67
     7
176
     1
 79
     5
176
     1
170
     0
176
     1
171
     0
176
     1
290
     0
176
     1
 93
        1
176
     1
 44
50.0
176
     1
173
     0
176
     1
  0
VISUALSTYLE
  5
3A
102
{ACAD_REACTORS
330
2A
102
}
330
2A
100
AcDbVisualStyle
  2
ColorChange
 70
    16
177
     2
291
     1
 71
     2
176
     1
 72
     2
176
     1
 73
     3
176
     1
 90
        0
176
     1
 40
-0.6
176
     1
 41
-30.0
176
     1
 62
     5
 63
     8
421
  8421504
176
     1
 74
     1
176
     1
 91
        4
176
     1
 64
     7
176
     1
 65
   257
176
     1
 75
     1
176
     1
175
     1
176
     1
 42
1.0
176
     1
 92
        8
176
     1
 66
     8
424
  8421504
176
     1
 43
1.0
176
     1
 76
     1
176
     1
 77
     6
176
     1
 78
     2
176
     1
 67
     7
176
     1
 79
     5
176
     1
170
     0
176
     1
171
     0
176
     1
290
     0
176
     1
 93
        1
176
     1
 44
0.0
176
     1
173
     0
176
     1
  0
VISUALSTYLE
  5
34
102
{ACAD_REACTORS
330
2A
102
}
330
2A
100
AcDbVisualStyle
  2
Conceptual
 70
     9
177
     2
291
     0
 71
     3
176
     1
 72
     2
176
     1
 73
     0
176
     1
 90
        0
176
     1
 40
-0.6
176
     1
 41
-30.0
176
     1
 62
     5
 63
     7
421
 16777215
176
     1
 74
     2
176
     1
 91
        2
176
     1
 64
     7
176
     1
 65
   257
176
     1
 75
     1
176
     1
175
     1
176
     1
 42
40.0
176
     1
 92
        8
176
     1
 66
     7
176
     1
 43
1.0
176
     1
 76
     1
176
     1
 77
     6
176
     1
 78
     2
176
     1
 67
     7
176
     1
 79
     3
176
     1
170
     0
176
     1
171
     0
176
     1
290
     0
176
     1
 93
        1
176
     1
 44
0.0
176
     1
173
     0
176
     1
  0
VISUALSTYLE
  5
35
102
{ACAD_REACTORS
330
2A
102
}
330
2A
100
AcDbVisualStyle
  2
Dim
 70
    11
177
     2
291
     1
 71
     2
176
     1
 72
     2
176
     1
 73
     0
176
     1
 90
        0
176
     1
 40
-0.6
176
     1
 41
-30.0
176
     1
 62
     5
 63
     7
421
 16777215
176
     1
 74
     1
176
     1
 91
        4
176
     1
 64
     7
176
     1
 65
   257
176
     1
 75
     1
176
     1
175
     1
176
     1
 42
1.0
176
     1
 92
        8
176
     1
 66
     7
176
     1
 43
1.0
176
     1
 76
     1
176
     1
 77
     6
176
     1
 78
     2
176
     1
 67
     7
176
     1
 79
     5
176
     1
170
     0
176
     1
171
     0
176
     1
290
     0
176
     1
 93
        1
176
     1
 44
-50.0
176
     1
173
     0
176
     1
  0
VISUALSTYLE
  5
39
102
{ACAD_REACTORS
330
2A
102
}
330
2A
100
AcDbVisualStyle
  2
Facepattern
 70
    15
177
     2
291
     1
 71
     2
176
     1
 72
     2
176
     1
 73
     0
176
     1
 90
        0
176
     1
 40
-0.6
176
     1
 41
-30.0
176
     1
 62
     5
 63
     7
421
 16777215
176
     1
 74
     1
176
     1
 91
        4
176
     1
 64
     7
176
     1
 65
   257
176
     1
 75
     1
176
     1
175
     1
176
     1
 42
1.0
176
     1
 92
        8
176
     1
 66
     7
176
     1
 43
1.0
176
     1
 76
     1
176
     1
 77
     6
176
     1
 78
     2
176
     1
 67
     7
176
     1
 79
     5
176
     1
170
     0
176
     1
171
     0
176
     1
290
     0
176
     1
 93
        1
176
     1
 44
0.0
176
     1
173
     0
176
     1
  0
VISUALSTYLE
  5
2B
102
{ACAD_REACTORS
330
2A
102
}
330
2A
100
AcDbVisualStyle
  2
Flat
 70
     0
177
     2
291
     1
 71
     2
176
     1
 72
     1
176
     1
 73
     1
176
     1
 90
        2
176
     1
 40
-0.6
176
     1
 41
30.0
176
     1
 62
     5
 63
     7
421
 16777215
176
     1
 74
     0
176
     1
 91
        4
176
     1
 64
     7
176
     1
 65
   257
176
     1
 75
     1
176
     1
175
     1
176
     1
 42
1.0
176
     1
 92
        8
176
     1
 66
     7
176
     1
 43
1.0
176
     1
 76
     1
176
     1
 77
     6
176
     1
 78
     2
176
     1
 67
     7
176
     1
 79
     5
176
     1
170
     0
176
     1
171
     0
176
     1
290
     0
176
     1
 93
       13
176
     1
 44
0.0
176
     1
173
     0
176
     1
  0
VISUALSTYLE
  5
2C
102
{ACAD_REACTORS
330
2A
102
}
330
2A
100
AcDbVisualStyle
  2
FlatWithEdges
 70
     1
177
     2
291
     1
 71
     2
176
     1
 72
     1
176
     1
 73
     1
176
     1
 90
        2
176
     1
 40
-0.6
176
     1
 41
30.0
176
     1
 62
     5
 63
     7
421
 16777215
176
     1
 74
     1
176
     1
 91
        4
176
     1
 64
     7
176
     1
 65
   257
176
     1
 75
     1
176
     1
175
     1
176
     1
 42
1.0
176
     1
 92
        0
176
     1
 66
   257
176
     1
 43
1.0
176
     1
 76
     1
176
     1
 77
     6
176
     1
 78
     2
176
     1
 67
     7
176
     1
 79
     5
176
     1
170
     0
176
     1
171
     0
176
     1
290
     0
176
     1
 93
       13
176
     1
 44
0.0
176
     1
173
     0
176
     1
  0
VISUALSTYLE
  5
2D
102
{ACAD_REACTORS
330
2A
102
}
330
2A
100
AcDbVisualStyle
  2
Gouraud
 70
     2
177
     2
291
     1
 71
     2
176
     1
 72
     2
176
     1
 73
     1
176
     1
 90
        2
176
     1
 40
-0.6
176
     1
 41
30.0
176
     1
 62
     5
 63
     7
421
 16777215
176
     1
 74
     0
176
     1
 91
        4
176
     1
 64
     7
176
     1
 65
   257
176
     1
 75
     1
176
     1
175
     1
176
     1
 42
1.0
176
     1
 92
        0
176
     1
 66
     7
176
     1
 43
1.0
176
     1
 76
     1
176
     1
 77
     6
176
     1
 78
     2
176
     1
 67
     7
176
     1
 79
     5
176
     1
170
     0
176
     1
171
     0
176
     1
290
     0
176
     1
 93
       13
176
     1
 44
0.0
176
     1
173
     0
176
     1
  0
VISUALSTYLE
  5
2E
102
{ACAD_REACTORS
330
2A
102
}
330
2A
100
AcDbVisualStyle
  2
GouraudWithEdges
 70
     3
177
     2
291
     1
 71
     2
176
     1
 72
     2
176
     1
 73
     1
176
     1
 90
        2
176
     1
 40
-0.6
176
     1
 41
30.0
176
     1
 62
     5
 63
     7
421
 16777215
176
     1
 74
     1
176
     1
 91
        4
176
     1
 64
     7
176
     1
 65
   257
176
     1
 75
     1
176
     1
175
     1
176
     1
 42
1.0
176
     1
 92
        0
176
     1
 66
   257
176
     1
 43
1.0
176
     1
 76
     1
176
     1
 77
     6
176
     1
 78
     2
176
     1
 67
     7
176
     1
 79
     5
176
     1
170
     0
176
     1
171
     0
176
     1
290
     0
176
     1
 93
       13
176
     1
 44
0.0
176
     1
173
     0
176
     1
  0
VISUALSTYLE
  5
38
102
{ACAD_REACTORS
330
2A
102
}
330
2A
100
AcDbVisualStyle
  2
Linepattern
 70
    14
177
     2
291
     1
 71
     2
176
     1
 72
     2
176
     1
 73
     0
176
     1
 90
        0
176
     1
 40
-0.6
176
     1
 41
-30.0
176
     1
 62
     5
 63
     7
421
 16777215
176
     1
 74
     1
176
     1
 91
        4
176
     1
 64
     7
176
     1
 65
   257
176
     1
 75
     7
176
     1
175
     7
176
     1
 42
1.0
176
     1
 92
        8
176
     1
 66
     7
176
     1
 43
1.0
176
     1
 76
     1
176
     1
 77
     6
176
     1
 78
     2
176
     1
 67
     7
176
     1
 79
     5
176
     1
170
     0
176
     1
171
     0
176
     1
290
     0
176
     1
 93
        1
176
     1
 44
0.0
176
     1
173
     0
176
     1
  0
VISUALSTYLE
  5
33
102
{ACAD_REACTORS
330
2A
102
}
330
2A
100
AcDbVisualStyle
  2
Realistic
 70
     8
177
     2
291
     0
 71
     2
176
     1
 72
     2
176
     1
 73
     0
176
     1
 90
        0
176
     1
 40
-0.6
176
     1
 41
-30.0
176
     1
 62
     5
 63
     7
421
 16777215
176
     1
 74
     1
176
     1
 91
        0
176
     1
 64
     7
176
     1
 65
   257
176
     1
 75
     1
176
     1
175
     1
176
     1
 42
1.0
176
     1
 92
        8
176
     1
 66
     8
424
  7895160
176
     1
 43
1.0
176
     1
 76
     1
176
     1
 77
     6
176
     1
 78
     2
176
     1
 67
     7
176
     1
 79
     5
176
     1
170
     0
176
     1
171
     0
176
     1
290
     0
176
     1
 93
       13
176
     1
 44
0.0
176
     1
173
     0
176
     1
  0
VISUALSTYLE
  5
37
102
{ACAD_REACTORS
330
2A
102
}
330
2A
100
AcDbVisualStyle
  2
Thicken
 70
    13
177
     2
291
     1
 71
     2
176
     1
 72
     2
176
     1
 73
     0
176
     1
 90
        0
176
     1
 40
-0.6
176
     1
 41
-30.0
176
     1
 62
     5
 63
     7
421
 16777215
176
     1
 74
     1
176
     1
 91
        4
176
     1
 64
     7
176
     1
 65
   257
176
     1
 75
     1
176
     1
175
     1
176
     1
 42
1.0
176
     1
 92
       12
176
     1
 66
     7
176
     1
 43
1.0
176
     1
 76
     1
176
     1
 77
     6
176
     1
 78
     2
176
     1
 67
     7
176
     1
 79
     5
176
     1
170
     0
176
     1
171
     0
176
     1
290
     0
176
     1
 93
        1
176
     1
 44
0.0
176
     1
173
     0
176
     1
  0
ENDSEC
  0
EOF
